999
created by FILOU-NC11
0
SECTION
2
HEADER
9
$ACADVER
1
AC1009
9
$INSBASE
10
0.0
20
0.0
30
0.0
9
$EXTMIN
10
0.0
20
0.0
9
$EXTMAX
10
1000.0
20
1000.0
0
ENDSEC
  0
SECTION
  2
TABLES
  0
TABLE
  2
LTYPE
 70
     2
  0
LTYPE
  2
FASTFEED
 70
     0
  3
Fastfeed __ __ __ __ __ __ __ __ __ __ __ __ __
 72
    65
 73
     2
 40
9.525
 49
6.35
 49
-3.175
  0
ENDTAB
  0
TABLE
  2
LAYER
 70
    10
  0
LAYER
  2
CAT_SYS
 70
     0
 62
 1 
  6
CONTINUOUS
  0
LAYER
  2
Stift_0
 70
     0
 62
 7 
  6
CONTINUOUS
  0
ENDTAB
  0
ENDSEC
  0
SECTION
  2
ENTITIES
  0
ARC
  8
Stift_0
 10
18.9874509276032
 20
42.7394848632813
 30
0
 40
15.9633831298577
 50
142.456519564149
 51
154.966919564149
 62
 30 
  0
ARC
  8
Stift_0
 10
14.6602509276032
 20
44.7694848632814
 30
0
 40
11.1836904922268
 50
155.009397950473
 51
170.820597950473
 62
 30 
  0
ARC
  8
Stift_0
 10
13.8925009276032
 20
44.9244848632812
 30
0
 40
10.4010908013056
 50
170.98882466542
 51
189.04852466542
 62
 30 
  0
ARC
  8
Stift_0
 10
22.9770759276032
 20
46.5594848632813
 30
0
 40
19.6306311002846
 50
189.591158557922
 51
201.460958557922
 62
 30 
  0
ARC
  8
Stift_0
 10
36.3721509276033
 20
51.6394848632813
 30
0
 40
33.9560325181419
 50
201.168996190273
 51
208.613266190273
 62
 30 
  0
ARC
  8
Stift_0
 10
84.9789009276032
 20
78.6619848632813
 30
0
 40
89.5685909796531
 50
208.897776242051
 51
211.721276242051
 62
 30 
  0
ARC
  8
Stift_0
 10
-65.2120990723968
 20
-13.8955151367187
 30
0
 40
86.8521718115128
 50
28.4296131231948
 51
31.5644831231948
 62
 30 
  0
ARC
  8
Stift_0
 10
-40.4630990723968
 20
-0.178015136718727
 30
0
 40
58.5578982491204
 50
22.9296311356129
 51
28.1549311356129
 62
 30 
  0
ARC
  8
Stift_0
 10
-7.80997407239676
 20
13.1919848632813
 30
0
 40
23.2795127267024
 50
12.4212286987753
 51
23.9341286987753
 62
 30 
  0
ARC
  8
Stift_0
 10
5.40097592760324
 20
16.4144848632814
 30
0
 40
9.68946051507436
 50
353.3658486545
 51
370.6148486545
 62
 30 
  0
LINE
  8
Stift_0
 10
15.0255565946817
 20
15.2950689191011
 30
0
 11
14.9065009276032
 21
14.5919848632813
 31
0
 62
 30 
  0
ARC
  8
Stift_0
 10
14.6771259276032
 20
14.6044848632813
 30
0
 40
0.229715346951394
 50
277.059899657888
 51
356.880699657888
 62
 30 
  0
ARC
  8
Stift_0
 10
14.9761759276032
 20
15.2869848632813
 30
0
 40
0.949896763307865
 50
223.226121946948
 51
253.435121946948
 62
 30 
  0
LINE
  8
Stift_0
 10
14.2840275174644
 20
14.6364201552891
 30
0
 11
13.2908509276032
 21
15.4694848632813
 31
0
 62
 30 
  0
LINE
  8
Stift_0
 10
13.2908509276032
 20
15.4694848632813
 30
0
 11
9.64032592760324
 21
18.3294848632813
 31
0
 62
 30 
  0
ARC
  8
Stift_0
 10
2.06887842760324
 20
9.4844848632813
 30
0
 40
11.6430598317305
 50
49.4359978357766
 51
62.8937978357766
 62
 30 
  0
ARC
  8
Stift_0
 10
6.53272592760325
 20
17.8944848632814
 30
0
 40
2.12758976358775
 50
66.710189045069
 51
108.909689045069
 62
 30 
  0
ARC
  8
Stift_0
 10
8.37532592760325
 20
12.7644848632813
 30
0
 40
7.5783006449298
 50
109.519371005612
 51
123.596671005612
 62
 30 
  0
ARC
  8
Stift_0
 10
8.23410092760325
 20
12.1669848632813
 30
0
 40
8.01039630642452
 50
120.388762088
 51
136.238962088001
 62
 30 
  0
ARC
  8
Stift_0
 10
10.1876009276032
 20
10.7819848632813
 30
0
 40
10.3851406668711
 50
138.175018996659
 51
151.720218996659
 62
 30 
  0
ARC
  8
Stift_0
 10
3.97240092760325
 20
14.0119848632812
 30
0
 40
3.38293959096624
 50
150.023937158453
 51
164.212537158453
 62
 30 
  0
ARC
  8
Stift_0
 10
1.48424592760324
 20
14.6994848632812
 30
0
 40
0.801743623695158
 50
163.112942794782
 51
203.687042794782
 62
 30 
  0
ARC
  8
Stift_0
 10
2.07080342760324
 20
15.1494848632813
 30
0
 40
1.52987801008406
 50
210.309860957588
 51
231.123860957588
 62
 30 
  0
ARC
  8
Stift_0
 10
0.459665927603245
 20
13.0919848632813
 30
0
 40
1.08374260997239
 50
28.2297861857523
 51
53.0850861857523
 62
 30 
  0
ARC
  8
Stift_0
 10
1.03657592760324
 20
13.5219848632813
 30
0
 40
0.386855177020251
 50
312.625524284126
 51
372.331524284126
 62
 30 
  0
LINE
  8
Stift_0
 10
1.29855573169233
 20
13.2373385735868
 30
0
 11
0.817470927603245
 21
12.7419848632812
 31
0
 62
 30 
  0
LINE
  8
Stift_0
 10
0.817470927603245
 20
12.7419848632812
 30
0
 11
0.203103427603245
 21
12.0419848632813
 31
0
 62
 30 
  0
ARC
  8
Stift_0
 10
1.04971342760324
 20
11.3444848632813
 30
0
 40
1.09692968876766
 50
140.515776161522
 51
183.610676161522
 62
 30 
  0
ARC
  8
Stift_0
 10
1.08842842760324
 20
11.6044848632813
 30
0
 40
1.18027211569477
 50
196.189655003027
 51
239.274555003027
 62
 30 
  0
ARC
  8
Stift_0
 10
4.50562592760325
 20
16.4469848632813
 30
0
 40
7.10406622964123
 50
235.534829402321
 51
245.71612940232
 62
 30 
  0
ARC
  8
Stift_0
 10
9.89510092760325
 20
27.3219848632813
 30
0
 40
19.2383361968132
 50
244.405063955805
 51
253.846853955805
 62
 30 
  0
ARC
  8
Stift_0
 10
11.5546759276032
 20
33.3919848632813
 30
0
 40
25.5305804933255
 50
254.059271025809
 51
262.465051025809
 62
 30 
  0
ARC
  8
Stift_0
 10
11.9653009276032
 20
38.3144848632813
 30
0
 40
30.4653535206098
 50
262.913435145942
 51
269.066845145942
 62
 30 
  0
LINE
  8
Stift_0
 10
11.4691450857069
 20
7.85317178396235
 30
0
 11
14.2185759276032
 21
7.84698486328125
 31
0
 62
 30 
  0
ARC
  8
Stift_0
 10
14.3156759276032
 20
25.5444848632814
 30
0
 40
17.6977663748848
 50
269.685641228089
 51
279.816641228089
 62
 30 
  0
LINE
  8
Stift_0
 10
17.3330689589587
 20
8.10584174076951
 30
0
 11
19.4440759276032
 21
8.77948486328125
 31
0
 62
 30 
  0
ARC
  8
Stift_0
 10
19.8748509276032
 20
6.12198486328134
 30
0
 40
2.69218746572836
 50
74.3323353399061
 51
99.2074353399061
 62
 30 
  0
ARC
  8
Stift_0
 10
21.0888509276032
 20
16.8544848632813
 30
0
 40
8.15489446885447
 50
266.576643435193
 51
276.695143435194
 62
 30 
  0
ARC
  8
Stift_0
 10
20.7412509276032
 20
35.9744848632813
 30
0
 40
27.2502303242436
 50
272.730920354667
 51
278.780430354667
 62
 30 
  0
ARC
  8
Stift_0
 10
23.3897009276032
 20
19.9094848632813
 30
0
 40
10.9704641453624
 50
277.918036892279
 51
295.466436892279
 62
 30 
  0
ARC
  8
Stift_0
 10
27.1391509276032
 20
11.9869848632812
 30
0
 40
2.20564209810977
 50
296.022128120473
 51
349.289028120473
 62
 30 
  0
ARC
  8
Stift_0
 10
27.0476509276032
 20
12.0469848632813
 30
0
 40
2.30708060434594
 50
348.247179562429
 51
401.848279562429
 62
 30 
  0
ARC
  8
Stift_0
 10
16.6913259276032
 20
3.18198486328129
 30
0
 40
15.9389611594908
 50
40.7494328552327
 51
53.8383328552327
 62
 30 
  0
ARC
  8
Stift_0
 10
14.7811009276032
 20
1.66948486328135
 30
0
 40
18.2987836126034
 50
51.803438071666
 51
59.249958071666
 62
 30 
  0
ARC
  8
Stift_0
 10
22.8775759276032
 20
15.5819848632814
 30
0
 40
2.20808238804414
 50
55.2191006831818
 51
78.8749006831818
 62
 30 
  0
ARC
  8
Stift_0
 10
23.1860259276032
 20
18.3744848632813
 30
0
 40
0.636863914145057
 50
241.340530653699
 51
280.641330653699
 62
 30 
  0
ARC
  8
Stift_0
 10
34.7459009276033
 20
22.9094848632813
 30
0
 40
12.9125108849117
 50
195.034286093745
 51
203.234086093745
 62
 30 
  0
LINE
  8
Stift_0
 10
22.2753752871385
 20
19.5600180992316
 30
0
 11
20.1723009276032
 21
25.6569848632813
 31
0
 62
 30 
  0
ARC
  8
Stift_0
 10
92.7866509276033
 20
49.9719848632813
 30
0
 40
76.577170559655
 50
193.978122182178
 51
198.513182182178
 62
 30 
  0
ARC
  8
Stift_0
 10
55.8529009276032
 20
40.9744848632813
 30
0
 40
38.5642127665292
 50
186.793114140838
 51
194.260904140838
 62
 30 
  0
ARC
  8
Stift_0
 10
39.4951509276032
 20
38.9594848632813
 30
0
 40
22.0830536203546
 50
175.379815251114
 51
186.621915251114
 62
 30 
  0
ARC
  8
Stift_0
 10
35.9944009276032
 20
39.0544848632812
 30
0
 40
18.5869705025179
 50
164.48565604089
 51
174.80245604089
 62
 30 
  0
ARC
  8
Stift_0
 10
24.6388509276032
 20
42.4344848632813
 30
0
 40
6.7446672715604
 50
152.018148386793
 51
166.350348386793
 62
 30 
  0
ARC
  8
Stift_0
 10
19.2466509276032
 20
45.4044848632813
 30
0
 40
0.596600499988853
 50
100.595021658179
 51
160.968621658179
 62
 30 
  0
ARC
  8
Stift_0
 10
18.9257259276032
 20
45.1869848632813
 30
0
 40
0.831216315896483
 50
28.3759247459367
 51
75.2784247459367
 62
 30 
  0
ARC
  8
Stift_0
 10
22.0725259276032
 20
47.1794848632812
 30
0
 40
2.89591208572944
 50
213.478641371604
 51
241.816641371604
 62
 30 
  0
ARC
  8
Stift_0
 10
21.4458509276032
 20
46.8444848632813
 30
0
 40
2.33811703670555
 50
251.521866875719
 51
289.771566875719
 62
 30 
  0
ARC
  8
Stift_0
 10
21.4658259276032
 20
46.6244848632813
 30
0
 40
2.1250574125588
 50
291.271422456035
 51
320.357022456035
 62
 30 
  0
LINE
  8
Stift_0
 10
23.1021942881888
 20
45.2686944682918
 30
0
 11
24.0275759276032
 21
46.1694848632814
 31
0
 62
 30 
  0
ARC
  8
Stift_0
 10
20.4008759276032
 20
49.8719848632813
 30
0
 40
5.18280417727698
 50
314.407457123219
 51
327.340957123219
 62
 30 
  0
ARC
  8
Stift_0
 10
24.7217509276032
 20
47.1369848632812
 30
0
 40
0.0750436074447698
 50
304.505399430746
 51
430.207399430746
 62
 30 
  0
LINE
  8
Stift_0
 10
24.7471619243929
 20
47.2075952326364
 30
0
 11
24.5735509276032
 21
47.1569848632813
 31
0
 62
 30 
  0
LINE
  8
Stift_0
 10
24.5735509276032
 20
47.1569848632813
 30
0
 11
24.1215759276032
 21
46.8519848632814
 31
0
 62
 30 
  0
LINE
  8
Stift_0
 10
24.1215759276032
 20
46.8519848632814
 30
0
 11
23.4826509276032
 21
46.4044848632813
 31
0
 62
 30 
  0
LINE
  8
Stift_0
 10
23.4826509276032
 20
46.4044848632813
 30
0
 11
23.1901509276032
 21
46.2494848632813
 31
0
 62
 30 
  0
ARC
  8
Stift_0
 10
23.1632759276032
 20
46.3044848632812
 30
0
 40
0.0612149134198678
 50
121.644816594885
 51
296.041816594885
 62
 30 
  0
ARC
  8
Stift_0
 10
23.0831259276032
 20
46.3819848632813
 30
0
 40
0.0543295505331007
 50
155.56459421279
 51
332.14259421279
 62
 30 
  0
LINE
  8
Stift_0
 10
23.0336627721574
 20
46.4044592112023
 30
0
 11
23.4564009276032
 21
47.3144848632813
 31
0
 62
 30 
  0
ARC
  8
Stift_0
 10
25.1369009276032
 20
47.2519848632813
 30
0
 40
1.68166182688435
 50
150.671876451885
 51
177.870076451885
 62
 30 
  0
LINE
  8
Stift_0
 10
23.6707794548466
 20
48.0756803938762
 30
0
 11
24.5326259276032
 21
49.2144848632813
 31
0
 62
 30 
  0
ARC
  8
Stift_0
 10
20.5744759276032
 20
51.9519848632813
 30
0
 40
4.81257287451318
 50
325.331840297323
 51
337.777840297323
 62
 30 
  0
LINE
  8
Stift_0
 10
25.0295919774484
 20
50.1318753459962
 30
0
 11
25.5084009276032
 21
51.2219848632813
 31
0
 62
 30 
  0
LINE
  8
Stift_0
 10
25.5084009276032
 20
51.2219848632813
 30
0
 11
25.6841509276032
 21
51.9494848632812
 31
0
 62
 30 
  0
LINE
  8
Stift_0
 10
25.6841509276032
 20
51.9494848632812
 30
0
 11
26.0849009276032
 21
52.3119848632813
 31
0
 62
 30 
  0
ARC
  8
Stift_0
 10
25.8976509276032
 20
52.5194848632814
 30
0
 40
0.279497428431874
 50
312.063398581499
 51
399.907498581499
 62
 30 
  0
ARC
  8
Stift_0
 10
23.7949759276032
 20
50.5544848632812
 30
0
 40
3.15703909478216
 50
42.7824117588812
 51
60.1496117588812
 62
 30 
  0
LINE
  8
Stift_0
 10
25.3663508335309
 20
53.29267345266
 30
0
 11
23.6981759276032
 21
54.5169848632813
 31
0
 62
 30 
  0
ARC
  8
Stift_0
 10
12.5033259276032
 20
42.6394848632813
 30
0
 40
16.321754586211
 50
46.6947366243811
 51
54.4125366243811
 62
 30 
  0
ARC
  8
Stift_0
 10
18.0857759276032
 20
48.9344848632813
 30
0
 40
8.00194915073114
 50
60.7008151496171
 51
80.4374151496171
 62
 30 
  0
ARC
  8
Stift_0
 10
9.80467592760325
 20
13.6669848632813
 30
0
 40
44.2153323953654
 50
77.4462746541843
 51
83.2618646541843
 62
 30 
  0
ARC
  8
Stift_0
 10
13.4417509276032
 20
45.2069848632814
 30
0
 40
12.4667573704131
 50
82.8542495091186
 51
91.6367095091186
 62
 30 
  0
ARC
  8
Stift_0
 10
13.2231009276032
 20
52.7619848632812
 30
0
 40
4.90859534017998
 50
91.6043270372131
 51
110.118227037213
 62
 30 
  0
ARC
  8
Stift_0
 10
14.8256509276032
 20
50.2394848632813
 30
0
 40
7.85427995525092
 50
114.771143325601
 51
138.896743325601
 62
 30 
  0
ARC
  8
Stift_0
 10
30.5614009276032
 20
33.7919848632813
 30
0
 40
30.5931314864058
 50
135.057088558728
 51
142.379998558728
 62
 30 
  0
ARC
  8
Stift_0
 10
14.9225759276032
 20
54.2869848632813
 30
0
 40
0.772689802330136
 50
212.926025117188
 51
252.296625117188
 62
 30 
  0
LINE
  8
Stift_0
 10
14.6876093232032
 20
53.5508868905617
 30
0
 11
15.2320509276032
 21
53.2469848632813
 31
0
 62
 30 
  0
LINE
  8
Stift_0
 10
15.2320509276032
 20
53.2469848632813
 30
0
 11
15.7304759276032
 21
52.9544848632813
 31
0
 62
 30 
  0
ARC
  8
Stift_0
 10
16.3640759276032
 20
53.6544848632813
 30
0
 40
0.944165748160776
 50
227.850405392143
 51
256.543905392143
 62
 30 
  0
ARC
  8
Stift_0
 10
15.0331509276032
 20
53.0419848632813
 30
0
 40
1.15251268370326
 50
344.615973787048
 51
370.399473787048
 62
 30 
  0
ARC
  8
Stift_0
 10
12.1110759276032
 20
53.7994848632812
 30
0
 40
4.09270664273831
 50
352.284549799707
 51
364.984149799707
 62
 30 
  0
ARC
  8
Stift_0
 10
15.7911259276032
 20
54.0169848632813
 30
0
 40
0.420496837893077
 50
19.1693568885036
 51
94.3532568885036
 62
 30 
  0
LINE
  8
Stift_0
 10
15.7592078687474
 20
54.4362685717615
 30
0
 11
15.1935009276032
 21
54.4294848632812
 31
0
 62
 30 
  0
ARC
  8
Stift_0
 10
15.3439009276032
 20
52.6894848632813
 30
0
 40
1.74648795014448
 50
94.9401839706014
 51
116.363483970601
 62
 30 
  0
ARC
  8
Stift_0
 10
14.7238259276032
 20
53.8319848632814
 30
0
 40
0.450053486411155
 50
110.21019699297
 51
175.36479699297
 62
 30 
  0
ARC
  8
Stift_0
 10
13.6836009276032
 20
53.6794848632812
 30
0
 40
1.22683648156548
 50
218.129553424697
 51
245.966553424697
 62
 30 
  0
LINE
  8
Stift_0
 10
13.1839474073287
 20
52.5590054515217
 30
0
 11
13.8906759276032
 21
52.2044848632813
 31
0
 62
 30 
  0
LINE
  8
Stift_0
 10
13.8906759276032
 20
52.2044848632813
 30
0
 11
14.6240759276032
 21
51.8144848632813
 31
0
 62
 30 
  0
LINE
  8
Stift_0
 10
14.6240759276032
 20
51.8144848632813
 30
0
 11
15.1361509276032
 21
51.5544848632812
 31
0
 62
 30 
  0
LINE
  8
Stift_0
 10
15.1361509276032
 20
51.5544848632812
 30
0
 11
15.7109259276032
 21
51.2469848632813
 31
0
 62
 30 
  0
LINE
  8
Stift_0
 10
15.7109259276032
 20
51.2469848632813
 30
0
 11
16.1646509276032
 21
51.0019848632813
 31
0
 62
 30 
  0
ARC
  8
Stift_0
 10
16.2360259276032
 20
51.1244848632813
 30
0
 40
0.141776728079705
 50
239.772652523374
 51
339.046752523374
 62
 30 
  0
LINE
  8
Stift_0
 10
16.3684273205835
 20
51.0737846486676
 30
0
 11
16.3273759276032
 21
51.3669848632812
 31
0
 62
 30 
  0
LINE
  8
Stift_0
 10
16.3273759276032
 20
51.3669848632812
 30
0
 11
16.2959759276032
 21
51.7519848632813
 31
0
 62
 30 
  0
LINE
  8
Stift_0
 10
16.2959759276032
 20
51.7519848632813
 30
0
 11
16.2014759276032
 21
52.0894848632813
 31
0
 62
 30 
  0
LINE
  8
Stift_0
 10
16.2014759276032
 20
52.0894848632813
 30
0
 11
15.8591259276032
 21
52.3044848632812
 31
0
 62
 30 
  0
LINE
  8
Stift_0
 10
15.8591259276032
 20
52.3044848632812
 30
0
 11
15.1228509276032
 21
52.7444848632813
 31
0
 62
 30 
  0
LINE
  8
Stift_0
 10
15.1228509276032
 20
52.7444848632813
 30
0
 11
14.1532259276032
 21
53.2419848632812
 31
0
 62
 30 
  0
ARC
  8
Stift_0
 10
12.7449009276032
 20
50.9994848632813
 30
0
 40
2.64805316329281
 50
57.8705377207584
 51
77.7189377207584
 62
 30 
  0
ARC
  8
Stift_0
 10
13.2492759276032
 20
52.9444848632813
 30
0
 40
0.64514793683398
 50
84.7630637331077
 51
140.779563733108
 62
 30 
  0
ARC
  8
Stift_0
 10
13.0274009276032
 20
53.1169848632812
 30
0
 40
0.364245207711583
 50
139.732863919304
 51
212.510363919304
 62
 30 
  0
ARC
  8
Stift_0
 10
12.0428259276032
 20
52.4019848632813
 30
0
 40
1.20154055513119
 50
216.814821156542
 51
259.863121156542
 62
 30 
  0
LINE
  8
Stift_0
 10
11.8313543425381
 20
51.2192002360837
 30
0
 11
13.1193009276032
 21
50.6594848632813
 31
0
 62
 30 
  0
LINE
  8
Stift_0
 10
13.1193009276032
 20
50.6594848632813
 30
0
 11
14.1067759276032
 21
50.2394848632813
 31
0
 62
 30 
  0
LINE
  8
Stift_0
 10
14.1067759276032
 20
50.2394848632813
 30
0
 11
14.7978759276032
 21
49.9294848632812
 31
0
 62
 30 
  0
LINE
  8
Stift_0
 10
14.7978759276032
 20
49.9294848632812
 30
0
 11
15.4882509276032
 21
49.6394848632813
 31
0
 62
 30 
  0
LINE
  8
Stift_0
 10
15.4882509276032
 20
49.6394848632813
 30
0
 11
16.1470259276032
 21
49.3344848632813
 31
0
 62
 30 
  0
LINE
  8
Stift_0
 10
16.1470259276032
 20
49.3344848632813
 30
0
 11
16.6710259276032
 21
49.1319848632813
 31
0
 62
 30 
  0
ARC
  8
Stift_0
 10
16.7082259276032
 20
49.2444848632813
 30
0
 40
0.118490885725443
 50
251.702670879229
 51
394.342670879229
 62
 30 
  0
LINE
  8
Stift_0
 10
16.806061290282
 20
49.3113304451063
 30
0
 11
16.6557509276032
 21
49.8794848632813
 31
0
 62
 30 
  0
LINE
  8
Stift_0
 10
16.6557509276032
 20
49.8794848632813
 30
0
 11
16.5413759276032
 21
50.2469848632813
 31
0
 62
 30 
  0
ARC
  8
Stift_0
 10
15.8044259276032
 20
49.9119848632813
 30
0
 40
0.809518562171383
 50
24.4454191793449
 51
69.5776191793449
 62
 30 
  0
LINE
  8
Stift_0
 10
16.0868978296968
 20
50.6706217507497
 30
0
 11
14.4613259276032
 21
51.5194848632814
 31
0
 62
 30 
  0
LINE
  8
Stift_0
 10
14.4613259276032
 20
51.5194848632814
 30
0
 11
13.1560009276032
 21
52.1969848632813
 31
0
 62
 30 
  0
ARC
  8
Stift_0
 10
10.8373759276032
 20
48.4969848632813
 30
0
 40
4.36646560625697
 50
57.9264624124664
 51
73.4507624124664
 62
 30 
  0
ARC
  8
Stift_0
 10
11.9656009276032
 20
52.0044848632813
 30
0
 40
0.687855104760247
 50
80.3321667300026
 51
144.955066730003
 62
 30 
  0
ARC
  8
Stift_0
 10
12.0489759276032
 20
51.6769848632813
 30
0
 40
0.969519815689817
 50
131.824333482033
 51
179.798633482033
 62
 30 
  0
ARC
  8
Stift_0
 10
12.0397009276032
 20
53.6219848632813
 30
0
 40
4.23065308463125
 50
239.493221270436
 51
261.248621270436
 62
 30 
  0
LINE
  8
Stift_0
 10
11.3960190358306
 20
49.4405856782353
 30
0
 11
12.9731259276032
 21
48.9319848632813
 31
0
 62
 30 
  0
LINE
  8
Stift_0
 10
12.9731259276032
 20
48.9319848632813
 30
0
 11
14.0398759276032
 21
48.5644848632813
 31
0
 62
 30 
  0
LINE
  8
Stift_0
 10
14.0398759276032
 20
48.5644848632813
 30
0
 11
15.0522009276032
 21
48.2169848632813
 31
0
 62
 30 
  0
LINE
  8
Stift_0
 10
15.0522009276032
 20
48.2169848632813
 30
0
 11
15.8633509276032
 21
47.8944848632814
 31
0
 62
 30 
  0
LINE
  8
Stift_0
 10
15.8633509276032
 20
47.8944848632814
 30
0
 11
16.6734259276032
 21
47.5994848632813
 31
0
 62
 30 
  0
ARC
  8
Stift_0
 10
16.9601759276032
 20
48.2344848632813
 30
0
 40
0.696742823787979
 50
245.697263929896
 51
286.307863929896
 62
 30 
  0
ARC
  8
Stift_0
 10
17.0008759276032
 20
47.8744848632813
 30
0
 40
0.345412756349652
 50
296.652437313742
 51
356.198137313742
 62
 30 
  0
LINE
  8
Stift_0
 10
17.3455285386593
 20
47.8515818079987
 30
0
 11
17.2472259276032
 21
48.1769848632813
 31
0
 62
 30 
  0
LINE
  8
Stift_0
 10
17.2472259276032
 20
48.1769848632813
 30
0
 11
17.1527009276032
 21
48.4694848632813
 31
0
 62
 30 
  0
ARC
  8
Stift_0
 10
16.2305509276032
 20
47.3044848632812
 30
0
 40
1.48579460979643
 50
51.6367978607251
 51
74.509397860725
 62
 30 
  0
LINE
  8
Stift_0
 10
16.6273774190268
 20
48.7363069046693
 30
0
 11
15.0015009276032
 21
49.4569848632814
 31
0
 62
 30 
  0
LINE
  8
Stift_0
 10
15.0015009276032
 20
49.4569848632814
 30
0
 11
13.2447259276032
 21
50.2044848632813
 31
0
 62
 30 
  0
ARC
  8
Stift_0
 10
5.32595092760324
 20
34.6794848632812
 30
0
 40
17.4279265117978
 50
62.9754164946433
 51
71.0289764946433
 62
 30 
  0
ARC
  8
Stift_0
 10
10.6829759276032
 20
50.4994848632813
 30
0
 40
0.729765236181532
 50
64.9821264436573
 51
151.627726443657
 62
 30 
  0
LINE
  8
Stift_0
 10
10.0408710892907
 20
50.8462681912465
 30
0
 11
9.80577592760324
 21
50.3994848632813
 31
0
 62
 30 
  0
ARC
  8
Stift_0
 10
10.1913009276032
 20
50.2594848632813
 30
0
 40
0.410157927663224
 50
160.041956333436
 51
223.411256333436
 62
 30 
  0
ARC
  8
Stift_0
 10
9.29975092760325
 20
48.4319848632813
 30
0
 40
0.409524800836285
 50
177.900911064059
 51
227.642811064059
 62
 30 
  0
ARC
  8
Stift_0
 10
9.91965092760324
 20
49.2619848632812
 30
0
 40
1.44406428636631
 50
231.6586951957
 51
253.9256951957
 62
 30 
  0
LINE
  8
Stift_0
 10
9.51981299438537
 20
47.874378546519
 30
0
 11
11.4510259276032
 21
47.3419848632813
 31
0
 62
 30 
  0
LINE
  8
Stift_0
 10
11.4510259276032
 20
47.3419848632813
 30
0
 11
12.7358509276032
 21
47.0044848632813
 31
0
 62
 30 
  0
LINE
  8
Stift_0
 10
12.7358509276032
 20
47.0044848632813
 30
0
 11
13.6174509276032
 21
46.7694848632814
 31
0
 62
 30 
  0
LINE
  8
Stift_0
 10
13.6174509276032
 20
46.7694848632814
 30
0
 11
14.2288509276032
 21
46.6019848632814
 31
0
 62
 30 
  0
LINE
  8
Stift_0
 10
14.2288509276032
 20
46.6019848632814
 30
0
 11
14.7912009276032
 21
46.4344848632813
 31
0
 62
 30 
  0
LINE
  8
Stift_0
 10
14.7912009276032
 20
46.4344848632813
 30
0
 11
15.6739009276032
 21
46.1544848632813
 31
0
 62
 30 
  0
ARC
  8
Stift_0
 10
16.6171759276032
 20
48.3994848632813
 30
0
 40
2.43511657331326
 50
247.209459286752
 51
265.862859286752
 62
 30 
  0
ARC
  8
Stift_0
 10
16.4380009276032
 20
46.4994848632813
 30
0
 40
0.528782768248827
 50
270.378803775292
 51
332.200903775292
 62
 30 
  0
ARC
  8
Stift_0
 10
16.0861259276032
 20
46.5994848632813
 30
0
 40
0.889905516345202
 50
337.077192750068
 51
373.824992750068
 62
 30 
  0
ARC
  8
Stift_0
 10
16.5489759276032
 20
46.7469848632813
 30
0
 40
0.406529340350204
 50
9.2218171286683
 51
53.1299171286683
 62
 30 
  0
ARC
  8
Stift_0
 10
15.1940259276032
 20
44.8444848632813
 30
0
 40
2.74210308586119
 50
54.3324516914745
 51
70.1071516914745
 62
 30 
  0
LINE
  8
Stift_0
 10
16.1270599021182
 20
47.4229683198678
 30
0
 11
13.1196759276032
 21
48.5069848632813
 31
0
 62
 30 
  0
LINE
  8
Stift_0
 10
13.1196759276032
 20
48.5069848632813
 30
0
 11
11.2151009276032
 21
49.1844848632813
 31
0
 62
 30 
  0
ARC
  8
Stift_0
 10
9.02347592760325
 20
43.2144848632813
 30
0
 40
6.35956917885361
 50
69.841492499145
 51
81.193992499145
 62
 30 
  0
ARC
  8
Stift_0
 10
9.79485092760325
 20
48.6644848632814
 30
0
 40
0.858750884097693
 50
76.3808156502856
 51
133.367815650286
 62
 30 
  0
ARC
  8
Stift_0
 10
10.2543259276032
 20
48.4169848632813
 30
0
 40
1.3640881755625
 50
140.275846874846
 51
178.686646874846
 62
 30 
  0
ARC
  8
Stift_0
 10
9.36902592760324
 20
46.7569848632813
 30
0
 40
0.962473803539603
 50
162.151458449579
 51
200.407358449579
 62
 30 
  0
ARC
  8
Stift_0
 10
9.06865092760325
 20
46.7769848632813
 30
0
 40
0.698919842269025
 50
210.58363643027
 51
267.84293643027
 62
 30 
  0
LINE
  8
Stift_0
 10
9.04234430556508
 20
46.0785602735407
 30
0
 11
10.5121009276032
 21
45.7844848632813
 31
0
 62
 30 
  0
LINE
  8
Stift_0
 10
10.5121009276032
 20
45.7844848632813
 30
0
 11
11.8138259276032
 21
45.4944848632813
 31
0
 62
 30 
  0
LINE
  8
Stift_0
 10
11.8138259276032
 20
45.4944848632813
 30
0
 11
13.0323259276032
 21
45.2194848632813
 31
0
 62
 30 
  0
LINE
  8
Stift_0
 10
13.0323259276032
 20
45.2194848632813
 30
0
 11
14.5044759276032
 21
44.8619848632812
 31
0
 62
 30 
  0
ARC
  8
Stift_0
 10
16.2723509276032
 20
51.3494848632813
 30
0
 40
6.72406411819705
 50
254.756745343635
 51
266.061545343635
 62
 30 
  0
ARC
  8
Stift_0
 10
15.8738259276032
 20
45.0869848632813
 30
0
 40
0.450159693155022
 50
261.914335437807
 51
336.621235437807
 62
 30 
  0
ARC
  8
Stift_0
 10
15.5023759276032
 20
45.3394848632813
 30
0
 40
0.895293080112529
 50
331.213428648952
 51
364.234728648953
 62
 30 
  0
ARC
  8
Stift_0
 10
15.9472759276032
 20
45.2644848632813
 30
0
 40
0.469649269173846
 50
17.4852371509686
 51
80.1224371509686
 62
 30 
  0
LINE
  8
Stift_0
 10
16.0278411206729
 20
45.7271723233462
 30
0
 11
14.8631759276032
 21
46.0819848632814
 31
0
 62
 30 
  0
LINE
  8
Stift_0
 10
14.8631759276032
 20
46.0819848632814
 30
0
 11
12.9051759276032
 21
46.6119848632812
 31
0
 62
 30 
  0
LINE
  8
Stift_0
 10
12.9051759276032
 20
46.6119848632812
 30
0
 11
11.2504759276032
 21
47.0019848632813
 31
0
 62
 30 
  0
LINE
  8
Stift_0
 10
11.2504759276032
 20
47.0019848632813
 30
0
 11
10.0849759276032
 21
47.3044848632812
 31
0
 62
 30 
  0
ARC
  8
Stift_0
 10
9.00547592760324
 20
43.8394848632813
 30
0
 40
3.629262356182
 50
72.695889899115
 51
90.717389899115
 62
 30 
  0
ARC
  8
Stift_0
 10
8.99752592760325
 20
46.9069848632813
 30
0
 40
0.562728103688168
 50
93.8199955789636
 51
165.019295578964
 62
 30 
  0
ARC
  8
Stift_0
 10
9.10767592760324
 20
45.0219848632813
 30
0
 40
0.66066884480804
 50
153.479550551164
 51
201.670350551164
 62
 30 
  0
ARC
  8
Stift_0
 10
9.14800092760325
 20
45.0144848632813
 30
0
 40
0.695717864207948
 50
199.869728500041
 51
255.643628500041
 62
 30 
  0
ARC
  8
Stift_0
 10
11.2776009276032
 20
52.2894848632814
 30
0
 40
8.27563671200686
 50
253.848473586623
 51
262.845953586623
 62
 30 
  0
LINE
  8
Stift_0
 10
10.2469740168443
 20
44.0782747721964
 30
0
 11
11.5801259276032
 21
43.8469848632813
 31
0
 62
 30 
  0
LINE
  8
Stift_0
 10
11.5801259276032
 20
43.8469848632813
 30
0
 11
12.8096009276032
 21
43.6369848632812
 31
0
 62
 30 
  0
LINE
  8
Stift_0
 10
12.8096009276032
 20
43.6369848632812
 30
0
 11
14.1674259276032
 21
43.3944848632814
 31
0
 62
 30 
  0
ARC
  8
Stift_0
 10
15.2918509276032
 20
47.8594848632813
 30
0
 40
4.6044062136854
 50
255.865066677775
 51
272.762366677775
 62
 30 
  0
ARC
  8
Stift_0
 10
15.4315259276032
 20
43.7194848632813
 30
0
 40
0.466362374858638
 50
280.155413341437
 51
360.222813341437
 62
 30 
  0
ARC
  8
Stift_0
 10
15.4356009276032
 20
43.8444848632813
 30
0
 40
0.478415349100295
 50
345.078915345452
 51
393.674515345452
 62
 30 
  0
ARC
  8
Stift_0
 10
15.2359759276032
 20
43.4069848632813
 30
0
 40
0.922607442987981
 50
49.6161115071018
 51
82.1273115071018
 62
 30 
  0
LINE
  8
Stift_0
 10
15.3623476636072
 20
44.3208966085807
 30
0
 11
14.2595259276032
 21
44.5844848632813
 31
0
 62
 30 
  0
LINE
  8
Stift_0
 10
14.2595259276032
 20
44.5844848632813
 30
0
 11
12.6154509276032
 21
44.9719848632813
 31
0
 62
 30 
  0
LINE
  8
Stift_0
 10
12.6154509276032
 20
44.9719848632813
 30
0
 11
10.9359759276032
 21
45.3119848632813
 31
0
 62
 30 
  0
LINE
  8
Stift_0
 10
10.9359759276032
 20
45.3119848632813
 30
0
 11
9.80932592760325
 21
45.5719848632813
 31
0
 62
 30 
  0
ARC
  8
Stift_0
 10
9.20007592760325
 20
43.6394848632813
 30
0
 40
2.02626301661456
 50
72.5017504698617
 51
94.9572504698617
 62
 30 
  0
ARC
  8
Stift_0
 10
9.13990092760324
 20
44.9394848632813
 30
0
 40
0.727813629826287
 50
99.0848307171846
 51
148.645630717185
 62
 30 
  0
ARC
  8
Stift_0
 10
10.5229759276032
 20
43.4969848632813
 30
0
 40
1.8028694517352
 50
188.051000592435
 51
209.177800592435
 62
 30 
  0
ARC
  8
Stift_0
 10
9.62710092760324
 20
42.9944848632813
 30
0
 40
0.775694124292559
 50
209.031545904451
 51
263.194745904451
 62
 30 
  0
LINE
  8
Stift_0
 10
9.53518503372601
 20
42.2242557785834
 30
0
 11
10.9496759276032
 21
42.0919848632813
 31
0
 62
 30 
  0
LINE
  8
Stift_0
 10
10.9496759276032
 20
42.0919848632813
 30
0
 11
12.2948009276032
 21
41.9519848632813
 31
0
 62
 30 
  0
LINE
  8
Stift_0
 10
12.2948009276032
 20
41.9519848632813
 30
0
 11
13.1396759276032
 21
41.9169848632813
 31
0
 62
 30 
  0
LINE
  8
Stift_0
 10
13.1396759276032
 20
41.9169848632813
 30
0
 11
14.1421009276032
 21
41.8444848632813
 31
0
 62
 30 
  0
LINE
  8
Stift_0
 10
14.1421009276032
 20
41.8444848632813
 30
0
 11
15.1587759276032
 21
41.8744848632813
 31
0
 62
 30 
  0
ARC
  8
Stift_0
 10
15.1384009276032
 20
42.3994848632813
 30
0
 40
0.525395223260547
 50
272.222506536023
 51
321.818806536023
 62
 30 
  0
LINE
  8
Stift_0
 10
15.5513930099623
 20
42.074711587697
 30
0
 11
15.6305259276032
 21
42.3669848632812
 31
0
 62
 30 
  0
ARC
  8
Stift_0
 10
14.8712009276032
 20
42.3919848632813
 30
0
 40
0.759736438263295
 50
358.114276155968
 51
388.148876155968
 62
 30 
  0
ARC
  8
Stift_0
 10
15.1083759276032
 20
42.3544848632813
 30
0
 40
0.586499865451901
 50
42.4579966803361
 51
87.9524966803361
 62
 30 
  0
LINE
  8
Stift_0
 10
15.1293304351988
 20
42.9406102771532
 30
0
 11
14.0304259276032
 21
43.1344848632813
 31
0
 62
 30 
  0
LINE
  8
Stift_0
 10
14.0304259276032
 20
43.1344848632813
 30
0
 11
12.2077509276032
 21
43.4094848632813
 31
0
 62
 30 
  0
LINE
  8
Stift_0
 10
12.2077509276032
 20
43.4094848632813
 30
0
 11
10.1596009276032
 21
43.6819848632813
 31
0
 62
 30 
  0
ARC
  8
Stift_0
 10
9.42327592760325
 20
40.2219848632813
 30
0
 40
3.53748137883795
 50
77.9860694496967
 51
97.8775694496967
 62
 30 
  0
ARC
  8
Stift_0
 10
9.08880092760324
 20
43.3794848632813
 30
0
 40
0.377808315222332
 50
113.452057825686
 51
201.224657825686
 62
 30 
  0
LINE
  8
Stift_0
 10
9.13662592760325
 20
41.3869848632812
 30
0
 11
9.32685092760324
 21
40.8219848632813
 31
0
 62
 30 
  0
ARC
  8
Stift_0
 10
10.1025759276032
 20
40.9569848632814
 30
0
 40
0.787384452237285
 50
189.872352654316
 51
227.453152654316
 62
 30 
  0
ARC
  8
Stift_0
 10
10.2430509276032
 20
42.0319848632813
 30
0
 40
1.78664515977746
 50
247.875096400376
 51
273.807196400376
 62
 30 
  0
LINE
  8
Stift_0
 10
10.361682780884
 20
40.2492825857421
 30
0
 11
11.7764509276032
 21
40.2194848632813
 31
0
 62
 30 
  0
LINE
  8
Stift_0
 10
11.7764509276032
 20
40.2194848632813
 30
0
 11
13.1174009276032
 21
40.2194848632813
 31
0
 62
 30 
  0
LINE
  8
Stift_0
 10
13.1174009276032
 20
40.2194848632813
 30
0
 11
14.0360509276032
 21
40.2169848632813
 31
0
 62
 30 
  0
LINE
  8
Stift_0
 10
14.0360509276032
 20
40.2169848632813
 30
0
 11
14.7121009276032
 21
40.1944848632813
 31
0
 62
 30 
  0
ARC
  8
Stift_0
 10
14.8045759276032
 20
41.1694848632814
 30
0
 40
0.979375630503945
 50
264.581923521765
 51
296.910123521765
 62
 30 
  0
ARC
  8
Stift_0
 10
14.9014259276032
 20
40.6969848632813
 30
0
 40
0.529773769343209
 50
310.834690073262
 51
360.344690073262
 62
 30 
  0
ARC
  8
Stift_0
 10
14.6172759276032
 20
40.7869848632813
 30
0
 40
0.818530865891163
 50
353.911792037478
 51
384.652192037478
 62
 30 
  0
ARC
  8
Stift_0
 10
14.8911009276032
 20
40.8919848632813
 30
0
 40
0.526202203368195
 50
26.6980294441089
 51
78.3063294441089
 62
 30 
  0
LINE
  8
Stift_0
 10
14.9977511269811
 20
41.407265848572
 30
0
 11
14.1251259276032
 21
41.5069848632813
 31
0
 62
 30 
  0
LINE
  8
Stift_0
 10
14.1251259276032
 20
41.5069848632813
 30
0
 11
12.7515259276032
 21
41.6194848632813
 31
0
 62
 30 
  0
LINE
  8
Stift_0
 10
12.7515259276032
 20
41.6194848632813
 30
0
 11
11.0065009276032
 21
41.7019848632813
 31
0
 62
 30 
  0
ARC
  8
Stift_0
 10
10.0522009276032
 20
31.2069848632814
 30
0
 40
10.5382974663842
 50
84.8044389523565
 51
92.8978189523565
 62
 30 
  0
ARC
  8
Stift_0
 10
9.46142592760324
 20
41.4119848632813
 30
0
 40
0.325040766610623
 50
79.7189579260328
 51
184.171957926033
 62
 30 
  0
LINE
  8
Stift_0
 10
9.80257592760324
 20
39.5644848632813
 30
0
 11
9.88825092760325
 21
39.1244848632813
 31
0
 62
 30 
  0
LINE
  8
Stift_0
 10
9.88825092760325
 20
39.1244848632813
 30
0
 11
10.0876009276032
 21
38.6444848632814
 31
0
 62
 30 
  0
ARC
  8
Stift_0
 10
10.7581009276032
 20
38.9869848632812
 30
0
 40
0.752912013451738
 50
207.058528017068
 51
262.175928017068
 62
 30 
  0
ARC
  8
Stift_0
 10
10.9819759276032
 20
44.2944848632814
 30
0
 40
6.06219472596454
 50
266.913876054484
 51
278.889376054484
 62
 30 
  0
LINE
  8
Stift_0
 10
11.9187498640135
 20
38.305105973315
 30
0
 11
13.0759009276032
 21
38.3669848632812
 31
0
 62
 30 
  0
LINE
  8
Stift_0
 10
13.0759009276032
 20
38.3669848632812
 30
0
 11
14.0130259276032
 21
38.4319848632813
 31
0
 62
 30 
  0
LINE
  8
Stift_0
 10
14.0130259276032
 20
38.4319848632813
 30
0
 11
14.9141009276032
 21
38.5219848632813
 31
0
 62
 30 
  0
ARC
  8
Stift_0
 10
14.9369759276032
 20
39.1019848632814
 30
0
 40
0.580450915775849
 50
267.74144477846
 51
323.05954477846
 62
 30 
  0
ARC
  8
Stift_0
 10
14.3517759276032
 20
39.0894848632813
 30
0
 40
1.10172724777109
 50
342.224616632324
 51
373.020716632324
 62
 30 
  0
ARC
  8
Stift_0
 10
14.4449009276032
 20
39.2719848632813
 30
0
 40
0.982476101732092
 50
3.8356711726428
 51
31.8160711726428
 62
 30 
  0
ARC
  8
Stift_0
 10
15.0246009276032
 20
39.5369848632813
 30
0
 40
0.359291161026861
 50
44.7521109146137
 51
94.7670109146137
 62
 30 
  0
LINE
  8
Stift_0
 10
14.9947423659852
 20
39.8950331905921
 30
0
 11
14.4854259276032
 21
39.8994848632813
 31
0
 62
 30 
  0
LINE
  8
Stift_0
 10
14.4854259276032
 20
39.8994848632813
 30
0
 11
13.1738009276032
 21
39.9219848632813
 31
0
 62
 30 
  0
LINE
  8
Stift_0
 10
13.1738009276032
 20
39.9219848632813
 30
0
 11
11.5914259276032
 21
39.9019848632813
 31
0
 62
 30 
  0
LINE
  8
Stift_0
 10
11.5914259276032
 20
39.9019848632813
 30
0
 11
10.2034759276032
 21
39.8394848632813
 31
0
 62
 30 
  0
ARC
  8
Stift_0
 10
10.1538509276032
 20
39.4819848632814
 30
0
 40
0.360927819134224
 50
82.0972049775901
 51
166.78460497759
 62
 30 
  0
ARC
  8
Stift_0
 10
11.0432009276032
 20
37.4619848632813
 30
0
 40
0.479362259283145
 50
143.890901408605
 51
199.502801408605
 62
 30 
  0
LINE
  8
Stift_0
 10
10.5913419969926
 20
37.3019483597815
 30
0
 11
10.7989259276032
 21
36.8244848632812
 31
0
 62
 30 
  0
ARC
  8
Stift_0
 10
11.4900259276032
 20
37.0319848632813
 30
0
 40
0.721578450343433
 50
196.712173526296
 51
254.798973526296
 62
 30 
  0
ARC
  8
Stift_0
 10
11.7437009276032
 20
40.7869848632813
 30
0
 40
4.47330912948955
 50
264.318154486869
 51
281.158754486869
 62
 30 
  0
LINE
  8
Stift_0
 10
12.6094121264791
 20
36.3982448746153
 30
0
 11
13.7053009276032
 21
36.5244848632813
 31
0
 62
 30 
  0
LINE
  8
Stift_0
 10
13.7053009276032
 20
36.5244848632813
 30
0
 11
14.5296259276032
 21
36.5894848632813
 31
0
 62
 30 
  0
LINE
  8
Stift_0
 10
14.5296259276032
 20
36.5894848632813
 30
0
 11
15.1986759276032
 21
36.6694848632814
 31
0
 62
 30 
  0
ARC
  8
Stift_0
 10
14.9552009276032
 20
37.3669848632812
 30
0
 40
0.738773527967079
 50
289.242465441198
 51
326.430465441198
 62
 30 
  0
ARC
  8
Stift_0
 10
15.1257509276032
 20
37.2919848632813
 30
0
 40
0.556108272955976
 50
323.150858054734
 51
363.284058054734
 62
 30 
  0
LINE
  8
Stift_0
 10
15.6809459565235
 20
37.3238422189827
 30
0
 11
15.5626009276032
 21
37.7994848632812
 31
0
 62
 30 
  0
ARC
  8
Stift_0
 10
15.0270259276032
 20
37.6769848632813
 30
0
 40
0.549405888778949
 50
12.8834252202626
 51
58.9396252202626
 62
 30 
  0
ARC
  8
Stift_0
 10
14.9553509276032
 20
36.6244848632813
 30
0
 40
1.56398842402498
 50
76.8753239795171
 51
100.511923979517
 62
 30 
  0
LINE
  8
Stift_0
 10
14.670016645895
 20
38.1622248081894
 30
0
 11
13.4915009276032
 21
38.0894848632813
 31
0
 62
 30 
  0
LINE
  8
Stift_0
 10
13.4915009276032
 20
38.0894848632813
 30
0
 11
12.2134259276032
 21
38.0269848632813
 31
0
 62
 30 
  0
LINE
  8
Stift_0
 10
12.2134259276032
 20
38.0269848632813
 30
0
 11
11.2328009276032
 21
37.9594848632813
 31
0
 62
 30 
  0
ARC
  8
Stift_0
 10
11.2670009276032
 20
36.9944848632813
 30
0
 40
0.965605840910218
 50
92.0297366613031
 51
129.175336661303
 62
 30 
  0
ARC
  8
Stift_0
 10
13.2355509276032
 20
33.3294848632813
 30
0
 40
0.726568819864987
 50
164.022108150479
 51
203.712808150479
 62
 30 
  0
LINE
  8
Stift_0
 10
12.5703243389026
 20
33.0372934265729
 30
0
 11
12.8755509276032
 21
32.5944848632813
 31
0
 62
 30 
  0
ARC
  8
Stift_0
 10
13.6197509276032
 20
33.1119848632812
 30
0
 40
0.906443539333764
 50
214.813885762773
 51
252.931385762773
 62
 30 
  0
ARC
  8
Stift_0
 10
13.6370009276032
 20
34.4744848632813
 30
0
 40
2.24695014291424
 50
262.756592332663
 51
283.076592332663
 62
 30 
  0
LINE
  8
Stift_0
 10
14.1453809911153
 20
32.2858015477315
 30
0
 11
14.8032259276032
 21
32.3969848632813
 31
0
 62
 30 
  0
LINE
  8
Stift_0
 10
14.8032259276032
 20
32.3969848632813
 30
0
 11
15.3432509276032
 21
32.4744848632813
 31
0
 62
 30 
  0
LINE
  8
Stift_0
 10
15.3432509276032
 20
32.4744848632813
 30
0
 11
15.8329759276032
 21
32.6069848632814
 31
0
 62
 30 
  0
LINE
  8
Stift_0
 10
15.8329759276032
 20
32.6069848632814
 30
0
 11
16.1643009276032
 21
32.8044848632812
 31
0
 62
 30 
  0
LINE
  8
Stift_0
 10
16.1643009276032
 20
32.8044848632812
 30
0
 11
16.3788259276032
 21
33.0094848632813
 31
0
 62
 30 
  0
ARC
  8
Stift_0
 10
15.6844259276032
 20
33.2744848632813
 30
0
 40
0.743247172883947
 50
339.111924122581
 51
370.161124122581
 62
 30 
  0
ARC
  8
Stift_0
 10
15.1430259276032
 20
33.3519848632814
 30
0
 40
1.27411856865863
 50
2.4120093100053
 51
30.8111093100053
 62
 30 
  0
ARC
  8
Stift_0
 10
15.6469259276032
 20
33.5119848632812
 30
0
 40
0.768915257361727
 50
39.8412711719117
 51
84.8420711719117
 62
 30 
  0
LINE
  8
Stift_0
 10
15.7160524068046
 20
34.2777865366124
 30
0
 11
14.9761259276032
 21
34.2719848632813
 31
0
 62
 30 
  0
LINE
  8
Stift_0
 10
14.9761259276032
 20
34.2719848632813
 30
0
 11
13.9006759276032
 21
34.1094848632813
 31
0
 62
 30 
  0
LINE
  8
Stift_0
 10
13.9006759276032
 20
34.1094848632813
 30
0
 11
12.9400259276032
 21
33.8594848632813
 31
0
 62
 30 
  0
ARC
  8
Stift_0
 10
13.0787759276032
 20
33.2819848632813
 30
0
 40
0.593934181959549
 50
103.509803953282
 51
155.474403953282
 62
 30 
  0
ARC
  8
Stift_0
 10
14.0265509276032
 20
31.2919848632813
 30
0
 40
0.511141737314635
 50
155.125822973317
 51
208.623622973317
 62
 30 
  0
LINE
  8
Stift_0
 10
13.5778781033356
 20
31.0471204673623
 30
0
 11
13.8787509276032
 21
30.5669848632813
 31
0
 62
 30 
  0
LINE
  8
Stift_0
 10
13.8787509276032
 20
30.5669848632813
 30
0
 11
14.2225759276032
 21
30.1569848632813
 31
0
 62
 30 
  0
ARC
  8
Stift_0
 10
14.7132009276032
 20
30.8519848632814
 30
0
 40
0.850727859321049
 50
234.780384161467
 51
272.826884161467
 62
 30 
  0
LINE
  8
Stift_0
 10
14.7551574826271
 20
30.0022922493818
 30
0
 11
15.4674009276032
 21
30.1169848632812
 31
0
 62
 30 
  0
LINE
  8
Stift_0
 10
15.4674009276032
 20
30.1169848632812
 30
0
 11
16.1494009276032
 21
30.2569848632813
 31
0
 62
 30 
  0
LINE
  8
Stift_0
 10
16.1494009276032
 20
30.2569848632813
 30
0
 11
16.7031509276032
 21
30.4144848632814
 31
0
 62
 30 
  0
ARC
  8
Stift_0
 10
16.3556759276032
 20
31.1044848632813
 30
0
 40
0.772553477517867
 50
296.729229143393
 51
331.218129143393
 62
 30 
  0
ARC
  8
Stift_0
 10
16.5907759276032
 20
31.0019848632813
 30
0
 40
0.517673861222
 50
328.631999518071
 51
371.731899518071
 62
 30 
  0
LINE
  8
Stift_0
 10
17.0976354559176
 20
31.1072447566381
 30
0
 11
16.9085259276032
 21
31.4219848632813
 31
0
 62
 30 
  0
LINE
  8
Stift_0
 10
16.9085259276032
 20
31.4219848632813
 30
0
 11
16.7038009276032
 21
31.8369848632813
 31
0
 62
 30 
  0
ARC
  8
Stift_0
 10
16.0909759276032
 20
31.5069848632813
 30
0
 40
0.696027643578151
 50
28.3020102075073
 51
74.3016102075073
 62
 30 
  0
ARC
  8
Stift_0
 10
16.1200259276032
 20
30.0844848632813
 30
0
 40
2.09861830999236
 50
85.6472987394904
 51
105.09539873949
 62
 30 
  0
LINE
  8
Stift_0
 10
15.573489112702
 20
32.1106873015862
 30
0
 11
14.7809009276032
 21
31.9844848632813
 31
0
 62
 30 
  0
LINE
  8
Stift_0
 10
14.7809009276032
 20
31.9844848632813
 30
0
 11
14.0302259276032
 21
31.7569848632813
 31
0
 62
 30 
  0
ARC
  8
Stift_0
 10
14.2044509276032
 20
30.8694848632813
 30
0
 40
0.904439384715747
 50
101.106491365404
 51
135.205191365404
 62
 30 
  0
ARC
  8
Stift_0
 10
15.2015759276032
 20
29.1794848632812
 30
0
 40
0.516614658739957
 50
166.853467108726
 51
208.790167108726
 62
 30 
  0
LINE
  8
Stift_0
 10
14.7488203457628
 20
28.9306815499245
 30
0
 11
14.9055009276032
 21
28.5194848632814
 31
0
 62
 30 
  0
LINE
  8
Stift_0
 10
14.9055009276032
 20
28.5194848632814
 30
0
 11
15.1371759276032
 21
28.1819848632813
 31
0
 62
 30 
  0
ARC
  8
Stift_0
 10
15.8757759276032
 20
28.5294848632813
 30
0
 40
0.816263566502858
 50
205.196266867835
 51
238.027966867835
 62
 30 
  0
ARC
  8
Stift_0
 10
15.7646759276032
 20
28.8669848632812
 30
0
 40
1.07883990212599
 50
252.68353591804
 51
286.26273591804
 62
 30 
  0
LINE
  8
Stift_0
 10
16.0667968543952
 20
27.831311903311
 30
0
 11
16.7964509276032
 21
28.0469848632813
 31
0
 62
 30 
  0
LINE
  8
Stift_0
 10
16.7964509276032
 20
28.0469848632813
 30
0
 11
17.4481259276032
 21
28.2944848632814
 31
0
 62
 30 
  0
ARC
  8
Stift_0
 10
17.1218509276032
 20
29.0819848632814
 30
0
 40
0.852415172099254
 50
292.505080943029
 51
332.167380943029
 62
 30 
  0
ARC
  8
Stift_0
 10
17.2138259276032
 20
28.9019848632813
 30
0
 40
0.696803046210145
 50
341.769846319036
 51
385.823446319036
 62
 30 
  0
LINE
  8
Stift_0
 10
17.8410466346336
 20
29.2055119129491
 30
0
 11
17.5814009276032
 21
29.6144848632813
 31
0
 62
 30 
  0
LINE
  8
Stift_0
 10
17.5814009276032
 20
29.6144848632813
 30
0
 11
17.3039509276032
 21
29.9994848632813
 31
0
 62
 30 
  0
ARC
  8
Stift_0
 10
17.0137759276032
 20
29.3119848632813
 30
0
 40
0.746229040325422
 50
67.1167182197785
 51
103.434318219779
 62
 30 
  0
LINE
  8
Stift_0
 10
16.8404041455093
 20
30.0377947597408
 30
0
 11
16.2204259276032
 21
29.9619848632813
 31
0
 62
 30 
  0
LINE
  8
Stift_0
 10
16.2204259276032
 20
29.9619848632813
 30
0
 11
15.5946259276032
 21
29.7719848632813
 31
0
 62
 30 
  0
LINE
  8
Stift_0
 10
15.5946259276032
 20
29.7719848632813
 30
0
 11
15.0599009276032
 21
29.5419848632813
 31
0
 62
 30 
  0
ARC
  8
Stift_0
 10
15.2862759276032
 20
28.8219848632813
 30
0
 40
0.754748726812423
 50
107.453654602479
 51
141.095954602479
 62
 30 
  0
ARC
  8
Stift_0
 10
11.9892509276032
 20
35.4544848632813
 30
0
 40
0.501453041171373
 50
147.083189183058
 51
188.588689183058
 62
 30 
  0
ARC
  8
Stift_0
 10
12.5720009276032
 20
35.5369848632813
 30
0
 40
1.09000221678321
 50
188.302044793556
 51
214.319144793556
 62
 30 
  0
ARC
  8
Stift_0
 10
12.6960759276032
 20
35.4469848632813
 30
0
 40
1.15081567590997
 50
207.116626357478
 51
249.194626357478
 62
 30 
  0
ARC
  8
Stift_0
 10
12.8075009276032
 20
37.3919848632813
 30
0
 40
3.06523570742834
 50
260.229280648022
 51
281.574380648022
 62
 30 
  0
LINE
  8
Stift_0
 10
13.4225094882207
 20
34.3890805337261
 30
0
 11
14.3966509276032
 21
34.4894848632813
 31
0
 62
 30 
  0
LINE
  8
Stift_0
 10
14.3966509276032
 20
34.4894848632813
 30
0
 11
14.9348759276032
 21
34.5844848632813
 31
0
 62
 30 
  0
LINE
  8
Stift_0
 10
14.9348759276032
 20
34.5844848632813
 30
0
 11
15.4125259276032
 21
34.6919848632813
 31
0
 62
 30 
  0
LINE
  8
Stift_0
 10
15.4125259276032
 20
34.6919848632813
 30
0
 11
15.8264259276032
 21
34.8844848632813
 31
0
 62
 30 
  0
ARC
  8
Stift_0
 10
15.5757009276032
 20
35.1869848632813
 30
0
 40
0.392898556404803
 50
309.65339886364
 51
355.99239886364
 62
 30 
  0
LINE
  8
Stift_0
 10
15.967638763448
 20
35.1595256488291
 30
0
 11
15.9635259276032
 21
35.5769848632813
 31
0
 62
 30 
  0
ARC
  8
Stift_0
 10
14.8710259276032
 20
35.5194848632814
 30
0
 40
1.09401211145033
 50
3.01278750418238
 51
32.7611875041824
 62
 30 
  0
ARC
  8
Stift_0
 10
15.3680259276032
 20
35.6144848632813
 30
0
 40
0.652642955872467
 50
49.5999538488253
 51
101.157653848825
 62
 30 
  0
LINE
  8
Stift_0
 10
15.2417334498918
 20
36.2547918505331
 30
0
 11
14.2368509276032
 21
36.1919848632813
 31
0
 62
 30 
  0
LINE
  8
Stift_0
 10
14.2368509276032
 20
36.1919848632813
 30
0
 11
13.1186509276032
 21
36.1069848632814
 31
0
 62
 30 
  0
LINE
  8
Stift_0
 10
13.1186509276032
 20
36.1069848632814
 30
0
 11
12.0216759276032
 21
35.9394848632813
 31
0
 62
 30 
  0
ARC
  8
Stift_0
 10
12.0750259276032
 20
35.2344848632813
 30
0
 40
0.707015715879093
 50
94.3275390033107
 51
135.805539003311
 62
 30 
  0
ARC
  8
Stift_0
 10
16.2014509276032
 20
26.9919848632812
 30
0
 40
0.330748969197184
 50
137.134924020248
 51
186.885024020248
 62
 30 
  0
LINE
  8
Stift_0
 10
15.8730870853378
 20
26.9523355541108
 30
0
 11
15.9374759276032
 21
26.6044848632813
 31
0
 62
 30 
  0
LINE
  8
Stift_0
 10
15.9374759276032
 20
26.6044848632813
 30
0
 11
16.1453759276032
 21
26.2044848632813
 31
0
 62
 30 
  0
LINE
  8
Stift_0
 10
16.1453759276032
 20
26.2044848632813
 30
0
 11
16.3856009276032
 21
25.7519848632813
 31
0
 62
 30 
  0
ARC
  8
Stift_0
 10
16.8487259276032
 20
25.9094848632813
 30
0
 40
0.489173809218151
 50
198.782191720005
 51
243.589391720005
 62
 30 
  0
ARC
  8
Stift_0
 10
16.7858259276032
 20
26.5619848632813
 30
0
 40
1.10153350668937
 50
261.927446476255
 51
287.911746476255
 62
 30 
  0
LINE
  8
Stift_0
 10
17.1246044325798
 20
25.513841175171
 30
0
 11
17.8377509276032
 21
25.6994848632812
 31
0
 62
 30 
  0
LINE
  8
Stift_0
 10
17.8377509276032
 20
25.6994848632812
 30
0
 11
18.5690259276032
 21
25.9844848632813
 31
0
 62
 30 
  0
ARC
  8
Stift_0
 10
18.1834509276032
 20
27.1519848632813
 30
0
 40
1.22952199273744
 50
288.27616576349
 51
313.97196576349
 62
 30 
  0
ARC
  8
Stift_0
 10
18.6817009276032
 20
26.4844848632813
 30
0
 40
0.416612459350056
 50
328.551199507886
 51
382.253199507886
 62
 30 
  0
LINE
  8
Stift_0
 10
19.0672838235567
 20
26.6422561269317
 30
0
 11
18.8823759276032
 21
27.0694848632813
 31
0
 62
 30 
  0
LINE
  8
Stift_0
 10
18.8823759276032
 20
27.0694848632813
 30
0
 11
18.6001259276032
 21
27.5294848632813
 31
0
 62
 30 
  0
LINE
  8
Stift_0
 10
18.6001259276032
 20
27.5294848632813
 30
0
 11
18.3306509276032
 21
27.9469848632813
 31
0
 62
 30 
  0
ARC
  8
Stift_0
 10
18.1107759276032
 20
27.5144848632813
 30
0
 40
0.485181683109517
 50
63.0520584274123
 51
112.174558427412
 62
 30 
  0
LINE
  8
Stift_0
 10
17.9276539860458
 20
27.9637816695745
 30
0
 11
17.3508259276032
 21
27.8244848632812
 31
0
 62
 30 
  0
LINE
  8
Stift_0
 10
17.3508259276032
 20
27.8244848632812
 30
0
 11
16.7814009276032
 21
27.6494848632813
 31
0
 62
 30 
  0
LINE
  8
Stift_0
 10
16.7814009276032
 20
27.6494848632813
 30
0
 11
16.3189509276032
 21
27.4369848632813
 31
0
 62
 30 
  0
LINE
  8
Stift_0
 10
16.3189509276032
 20
27.4369848632813
 30
0
 11
15.9590259276032
 21
27.2169848632813
 31
0
 62
 30 
  0
ARC
  8
Stift_0
 10
17.4394009276032
 20
24.5794848632813
 30
0
 40
0.388518673939876
 50
139.948963386824
 51
184.117563386824
 62
 30 
  0
LINE
  8
Stift_0
 10
17.0518850905589
 20
24.5515879810209
 30
0
 11
17.1223259276032
 21
24.2019848632813
 31
0
 62
 30 
  0
LINE
  8
Stift_0
 10
17.1223259276032
 20
24.2019848632813
 30
0
 11
17.2927009276032
 21
23.7919848632813
 31
0
 62
 30 
  0
LINE
  8
Stift_0
 10
17.2927009276032
 20
23.7919848632813
 30
0
 11
17.5710009276032
 21
23.3669848632812
 31
0
 62
 30 
  0
ARC
  8
Stift_0
 10
17.8845759276032
 20
23.6844848632813
 30
0
 40
0.446246042699553
 50
225.356349142212
 51
268.152649142212
 62
 30 
  0
LINE
  8
Stift_0
 10
17.8701903970803
 20
23.2384707523648
 30
0
 11
18.2551259276032
 21
23.2569848632813
 31
0
 62
 30 
  0
LINE
  8
Stift_0
 10
18.2551259276032
 20
23.2569848632813
 30
0
 11
18.8559759276032
 21
23.4444848632813
 31
0
 62
 30 
  0
LINE
  8
Stift_0
 10
18.8559759276032
 20
23.4444848632813
 30
0
 11
19.4428759276032
 21
23.7494848632813
 31
0
 62
 30 
  0
LINE
  8
Stift_0
 10
19.4428759276032
 20
23.7494848632813
 30
0
 11
19.8627759276032
 21
24.0069848632813
 31
0
 62
 30 
  0
ARC
  8
Stift_0
 10
19.4946509276032
 20
24.5344848632813
 30
0
 40
0.643251323842369
 50
304.909928076813
 51
340.543828076813
 62
 30 
  0
ARC
  8
Stift_0
 10
19.5546759276032
 20
24.4119848632813
 30
0
 40
0.554144106576623
 50
350.468794548177
 51
389.698194548177
 62
 30 
  0
LINE
  8
Stift_0
 10
20.036031613417
 20
24.6865251965447
 30
0
 11
19.8067509276032
 21
25.1269848632813
 31
0
 62
 30 
  0
LINE
  8
Stift_0
 10
19.8067509276032
 20
25.1269848632813
 30
0
 11
19.5370009276032
 21
25.5544848632812
 31
0
 62
 30 
  0
ARC
  8
Stift_0
 10
19.1861009276032
 20
25.1169848632812
 30
0
 40
0.560836036645292
 50
51.2683945604082
 51
97.7084945604082
 62
 30 
  0
LINE
  8
Stift_0
 10
19.1108742485114
 20
25.6727528065389
 30
0
 11
18.5352759276032
 21
25.5519848632813
 31
0
 62
 30 
  0
LINE
  8
Stift_0
 10
18.5352759276032
 20
25.5519848632813
 30
0
 11
17.9651009276032
 21
25.3194848632813
 31
0
 62
 30 
  0
LINE
  8
Stift_0
 10
17.9651009276032
 20
25.3194848632813
 30
0
 11
17.4752759276032
 21
25.0744848632812
 31
0
 62
 30 
  0
LINE
  8
Stift_0
 10
17.4752759276032
 20
25.0744848632812
 30
0
 11
17.1420009276032
 21
24.8294848632813
 31
0
 62
 30 
  0
ARC
  8
Stift_0
 10
19.6618759276032
 20
19.7994848632812
 30
0
 40
1.00750917148436
 50
120.845502428236
 51
153.413002428236
 62
 30 
  0
ARC
  8
Stift_0
 10
19.3906509276032
 20
20.0919848632813
 30
0
 40
0.64936575446593
 50
165.879830893236
 51
205.569530893236
 62
 30 
  0
LINE
  8
Stift_0
 10
18.8048826420258
 20
19.8117146388822
 30
0
 11
18.9730759276032
 21
19.4069848632813
 31
0
 62
 30 
  0
ARC
  8
Stift_0
 10
19.7432759276032
 20
19.7694848632814
 30
0
 40
0.851242791452591
 50
205.204347863059
 51
238.046147863059
 62
 30 
  0
ARC
  8
Stift_0
 10
19.5444759276032
 20
19.7569848632813
 30
0
 40
0.753069322240258
 50
250.47347043612
 51
286.16557043612
 62
 30 
  0
LINE
  8
Stift_0
 10
19.7541409746637
 20
19.0336910280107
 30
0
 11
20.2964259276032
 21
19.1819848632813
 31
0
 62
 30 
  0
LINE
  8
Stift_0
 10
20.2964259276032
 20
19.1819848632813
 30
0
 11
20.8628759276032
 21
19.4894848632813
 31
0
 62
 30 
  0
LINE
  8
Stift_0
 10
20.8628759276032
 20
19.4894848632813
 30
0
 11
21.2627009276032
 21
19.7394848632813
 31
0
 62
 30 
  0
ARC
  8
Stift_0
 10
20.9767759276032
 20
20.0644848632813
 30
0
 40
0.432871927508588
 50
311.340324775876
 51
354.715724775876
 62
 30 
  0
LINE
  8
Stift_0
 10
21.4078081544888
 20
20.0246185239578
 30
0
 11
21.3773259276032
 21
20.3719848632813
 31
0
 62
 30 
  0
LINE
  8
Stift_0
 10
21.3773259276032
 20
20.3719848632813
 30
0
 11
21.2827009276032
 21
20.7319848632814
 31
0
 62
 30 
  0
LINE
  8
Stift_0
 10
21.2827009276032
 20
20.7319848632814
 30
0
 11
21.1162509276032
 21
21.0719848632813
 31
0
 62
 30 
  0
ARC
  8
Stift_0
 10
20.7239509276032
 20
20.8594848632813
 30
0
 40
0.446156407552329
 50
28.4433991219081
 51
71.8025991219081
 62
 30 
  0
ARC
  8
Stift_0
 10
20.8104259276032
 20
21.5044848632813
 30
0
 40
0.227386067040798
 50
224.226784294654
 51
283.441384294654
 62
 30 
  0
LINE
  8
Stift_0
 10
20.6474845685504
 20
21.3458830442681
 30
0
 11
20.9367509276032
 21
21.4544848632813
 31
0
 62
 30 
  0
LINE
  8
Stift_0
 10
20.9367509276032
 20
21.4544848632813
 30
0
 11
20.2198259276032
 21
21.1794848632812
 31
0
 62
 30 
  0
LINE
  8
Stift_0
 10
20.2198259276032
 20
21.1794848632812
 30
0
 11
19.6511259276032
 21
20.9344848632813
 31
0
 62
 30 
  0
LINE
  8
Stift_0
 10
19.6511259276032
 20
20.9344848632813
 30
0
 11
19.1453009276032
 21
20.6644848632814
 31
0
 62
 30 
  0
ARC
  8
Stift_0
 10
18.2552259276032
 20
22.4569848632814
 30
0
 40
0.31766852220509
 50
130.237417439724
 51
180.328817439724
 62
 30 
  0
LINE
  8
Stift_0
 10
17.9375626366715
 20
22.4551617904885
 30
0
 11
17.9934759276032
 21
22.1094848632813
 31
0
 62
 30 
  0
LINE
  8
Stift_0
 10
17.9934759276032
 20
22.1094848632813
 30
0
 11
18.1539509276032
 21
21.7044848632813
 31
0
 62
 30 
  0
LINE
  8
Stift_0
 10
18.1539509276032
 20
21.7044848632813
 30
0
 11
18.3870509276032
 21
21.2569848632813
 31
0
 62
 30 
  0
ARC
  8
Stift_0
 10
18.7928759276032
 20
21.5444848632814
 30
0
 40
0.497343121622287
 50
215.315032557648
 51
262.808432557648
 62
 30 
  0
LINE
  8
Stift_0
 10
18.7306149263938
 20
21.0510542720596
 30
0
 11
19.2122259276032
 21
21.1144848632813
 31
0
 62
 30 
  0
LINE
  8
Stift_0
 10
19.2122259276032
 20
21.1144848632813
 30
0
 11
19.7996759276032
 21
21.3269848632813
 31
0
 62
 30 
  0
LINE
  8
Stift_0
 10
19.7996759276032
 20
21.3269848632813
 30
0
 11
20.4160009276032
 21
21.6694848632814
 31
0
 62
 30 
  0
LINE
  8
Stift_0
 10
20.4160009276032
 20
21.6694848632814
 30
0
 11
20.8135759276032
 21
21.9544848632813
 31
0
 62
 30 
  0
ARC
  8
Stift_0
 10
20.4779259276032
 20
22.1669848632813
 30
0
 40
0.397262095473506
 50
327.662101058622
 51
372.631601058622
 62
 30 
  0
LINE
  8
Stift_0
 10
20.8655728097955
 20
22.2538587214128
 30
0
 11
20.7884009276032
 21
22.5519848632813
 31
0
 62
 30 
  0
LINE
  8
Stift_0
 10
20.7884009276032
 20
22.5519848632813
 30
0
 11
20.6082259276032
 21
23.0244848632813
 31
0
 62
 30 
  0
LINE
  8
Stift_0
 10
20.6082259276032
 20
23.0244848632813
 30
0
 11
20.3884009276032
 21
23.4594848632813
 31
0
 62
 30 
  0
ARC
  8
Stift_0
 10
20.1265509276032
 20
23.1294848632813
 30
0
 40
0.421266450717373
 50
51.5685325069802
 51
109.08603250698
 62
 30 
  0
LINE
  8
Stift_0
 10
19.9888020510735
 20
23.5275937296919
 30
0
 11
19.4135009276032
 21
23.3319848632814
 31
0
 62
 30 
  0
LINE
  8
Stift_0
 10
19.4135009276032
 20
23.3319848632814
 30
0
 11
18.8456509276032
 21
23.1019848632814
 31
0
 62
 30 
  0
LINE
  8
Stift_0
 10
18.8456509276032
 20
23.1019848632814
 30
0
 11
18.3900259276032
 21
22.8919848632813
 31
0
 62
 30 
  0
LINE
  8
Stift_0
 10
18.3900259276032
 20
22.8919848632813
 30
0
 11
18.0500259276032
 21
22.6994848632812
 31
0
 62
 30 
  0
LINE
  8
Stift_0
 10
19.7392759276032
 20
15.8819848632813
 30
0
 11
19.7000009276032
 21
15.5769848632813
 31
0
 62
 30 
  0
LINE
  8
Stift_0
 10
19.7000009276032
 20
15.5769848632813
 30
0
 11
19.7048509276032
 21
15.2144848632813
 31
0
 62
 30 
  0
LINE
  8
Stift_0
 10
19.7048509276032
 20
15.2144848632813
 30
0
 11
19.7261259276032
 21
14.7994848632812
 31
0
 62
 30 
  0
LINE
  8
Stift_0
 10
19.7261259276032
 20
14.7994848632812
 30
0
 11
19.8290009276032
 21
14.4469848632813
 31
0
 62
 30 
  0
ARC
  8
Stift_0
 10
20.1089009276032
 20
14.6844848632813
 30
0
 40
0.36708345100263
 50
220.315182117974
 51
268.579982117974
 62
 30 
  0
LINE
  8
Stift_0
 10
20.0998040673018
 20
14.3175141462852
 30
0
 11
20.4914509276032
 21
14.3494848632813
 31
0
 62
 30 
  0
LINE
  8
Stift_0
 10
20.4914509276032
 20
14.3494848632813
 30
0
 11
20.9434759276032
 21
14.5669848632813
 31
0
 62
 30 
  0
LINE
  8
Stift_0
 10
20.9434759276032
 20
14.5669848632813
 30
0
 11
21.5308509276032
 21
14.8894848632813
 31
0
 62
 30 
  0
LINE
  8
Stift_0
 10
21.5308509276032
 20
14.8894848632813
 30
0
 11
21.9179259276032
 21
15.2544848632813
 31
0
 62
 30 
  0
LINE
  8
Stift_0
 10
21.9179259276032
 20
15.2544848632813
 30
0
 11
22.1192009276032
 21
15.6594848632813
 31
0
 62
 30 
  0
LINE
  8
Stift_0
 10
22.1192009276032
 20
15.6594848632813
 30
0
 11
22.1506259276032
 21
16.1144848632813
 31
0
 62
 30 
  0
LINE
  8
Stift_0
 10
22.1506259276032
 20
16.1144848632813
 30
0
 11
22.0037759276032
 21
16.5519848632813
 31
0
 62
 30 
  0
ARC
  8
Stift_0
 10
21.3565509276032
 20
16.2994848632812
 30
0
 40
0.694734805969175
 50
21.3121032877348
 51
53.7678032877348
 62
 30 
  0
ARC
  8
Stift_0
 10
21.6025009276032
 20
16.4594848632813
 30
0
 40
0.432936052915135
 50
67.6429104750136
 51
116.080010475014
 62
 30 
  0
LINE
  8
Stift_0
 10
21.4121710531856
 20
16.848339803867
 30
0
 11
20.9212009276032
 21
16.6319848632813
 31
0
 62
 30 
  0
LINE
  8
Stift_0
 10
20.9212009276032
 20
16.6319848632813
 30
0
 11
20.4022759276032
 21
16.3694848632813
 31
0
 62
 30 
  0
LINE
  8
Stift_0
 10
20.4022759276032
 20
16.3694848632813
 30
0
 11
20.0055259276032
 21
16.1069848632814
 31
0
 62
 30 
  0
LINE
  8
Stift_0
 10
20.0055259276032
 20
16.1069848632814
 30
0
 11
19.7392759276032
 21
15.8819848632813
 31
0
 62
 30 
  0
ARC
  8
Stift_0
 10
19.7667509276032
 20
17.9719848632813
 30
0
 40
0.393655271144678
 50
134.140602029738
 51
177.644202029738
 62
 30 
  0
LINE
  8
Stift_0
 10
19.3734283586894
 20
17.9881660030119
 30
0
 11
19.3897259276032
 21
17.6419848632813
 31
0
 62
 30 
  0
LINE
  8
Stift_0
 10
19.3897259276032
 20
17.6419848632813
 30
0
 11
19.4644509276032
 21
17.2444848632813
 31
0
 62
 30 
  0
LINE
  8
Stift_0
 10
19.4644509276032
 20
17.2444848632813
 30
0
 11
19.6363009276032
 21
16.8444848632813
 31
0
 62
 30 
  0
ARC
  8
Stift_0
 10
20.0089009276032
 20
17.0919848632813
 30
0
 40
0.447310865059159
 50
213.594148341844
 51
267.261748341844
 62
 30 
  0
ARC
  8
Stift_0
 10
20.0004509276032
 20
18.0944848632813
 30
0
 40
1.44935771020837
 50
269.489260679221
 51
292.107960679221
 62
 30 
  0
LINE
  8
Stift_0
 10
20.5459210375271
 20
16.7516892230888
 30
0
 11
20.9692259276032
 21
16.9694848632813
 31
0
 62
 30 
  0
LINE
  8
Stift_0
 10
20.9692259276032
 20
16.9694848632813
 30
0
 11
21.2920759276032
 21
17.1644848632814
 31
0
 62
 30 
  0
LINE
  8
Stift_0
 10
21.2920759276032
 20
17.1644848632814
 30
0
 11
21.6100509276032
 21
17.3944848632814
 31
0
 62
 30 
  0
LINE
  8
Stift_0
 10
21.6100509276032
 20
17.3944848632814
 30
0
 11
21.8642509276032
 21
17.7169848632813
 31
0
 62
 30 
  0
ARC
  8
Stift_0
 10
21.0951759276032
 20
18.0044848632813
 30
0
 40
0.821055787157609
 50
339.502964895827
 51
369.113564895827
 62
 30 
  0
LINE
  8
Stift_0
 10
21.9058669814134
 20
18.1345333961344
 30
0
 11
21.7753509276032
 21
18.5744848632812
 31
0
 62
 30 
  0
LINE
  8
Stift_0
 10
21.7753509276032
 20
18.5744848632812
 30
0
 11
21.5226509276032
 21
19.0144848632813
 31
0
 62
 30 
  0
ARC
  8
Stift_0
 10
21.2947259276032
 20
18.7569848632813
 30
0
 40
0.343883782148841
 50
48.486492579227
 51
105.222592579227
 62
 30 
  0
LINE
  8
Stift_0
 10
21.2044324734402
 20
19.0888028069799
 30
0
 11
20.8009009276032
 21
18.9869848632812
 31
0
 62
 30 
  0
LINE
  8
Stift_0
 10
20.8009009276032
 20
18.9869848632812
 30
0
 11
20.3065009276032
 21
18.7694848632814
 31
0
 62
 30 
  0
LINE
  8
Stift_0
 10
20.3065009276032
 20
18.7694848632814
 30
0
 11
19.8551759276032
 21
18.5094848632813
 31
0
 62
 30 
  0
LINE
  8
Stift_0
 10
19.8551759276032
 20
18.5094848632813
 30
0
 11
19.4926009276032
 21
18.2544848632813
 31
0
 62
 30 
  0
LINE
  8
Stift_0
 10
19.5809759276032
 20
13.4469848632813
 30
0
 11
19.3913259276032
 21
13.1469848632813
 31
0
 62
 30 
  0
LINE
  8
Stift_0
 10
19.3913259276032
 20
13.1469848632813
 30
0
 11
19.3406509276032
 21
12.7519848632813
 31
0
 62
 30 
  0
LINE
  8
Stift_0
 10
19.3406509276032
 20
12.7519848632813
 30
0
 11
19.3626509276032
 21
12.3144848632813
 31
0
 62
 30 
  0
ARC
  8
Stift_0
 10
19.8611259276032
 20
12.4644848632813
 30
0
 40
0.520554824802347
 50
196.747476099186
 51
242.508476099186
 62
 30 
  0
ARC
  8
Stift_0
 10
19.7573259276032
 20
12.4694848632813
 30
0
 40
0.486321713264693
 50
253.699650960618
 51
296.714950960618
 62
 30 
  0
LINE
  8
Stift_0
 10
19.9759528764207
 20
12.0350759936165
 30
0
 11
20.4445259276032
 21
12.2394848632813
 31
0
 62
 30 
  0
LINE
  8
Stift_0
 10
20.4445259276032
 20
12.2394848632813
 30
0
 11
21.0640259276032
 21
12.5969848632813
 31
0
 62
 30 
  0
LINE
  8
Stift_0
 10
21.0640259276032
 20
12.5969848632813
 30
0
 11
21.5601259276032
 21
12.8969848632813
 31
0
 62
 30 
  0
LINE
  8
Stift_0
 10
21.5601259276032
 20
12.8969848632813
 30
0
 11
21.7867759276032
 21
13.1519848632813
 31
0
 62
 30 
  0
LINE
  8
Stift_0
 10
21.7867759276032
 20
13.1519848632813
 30
0
 11
21.9285009276032
 21
13.4519848632813
 31
0
 62
 30 
  0
LINE
  8
Stift_0
 10
21.9285009276032
 20
13.4519848632813
 30
0
 11
21.9790509276032
 21
13.9144848632814
 31
0
 62
 30 
  0
LINE
  8
Stift_0
 10
21.9790509276032
 20
13.9144848632814
 30
0
 11
21.9148009276032
 21
14.3569848632814
 31
0
 62
 30 
  0
ARC
  8
Stift_0
 10
21.6926259276032
 20
14.2994848632812
 30
0
 40
0.229495055774646
 50
14.5100642819619
 51
88.2812642819619
 62
 30 
  0
LINE
  8
Stift_0
 10
21.6995091954244
 20
14.5288766705654
 30
0
 11
21.2869509276032
 21
14.4219848632813
 31
0
 62
 30 
  0
LINE
  8
Stift_0
 10
21.2869509276032
 20
14.4219848632813
 30
0
 11
20.7804759276032
 21
14.1969848632813
 31
0
 62
 30 
  0
LINE
  8
Stift_0
 10
20.7804759276032
 20
14.1969848632813
 30
0
 11
20.2613259276032
 21
13.9369848632813
 31
0
 62
 30 
  0
LINE
  8
Stift_0
 10
20.2613259276032
 20
13.9369848632813
 30
0
 11
19.8687259276032
 21
13.6719848632813
 31
0
 62
 30 
  0
LINE
  8
Stift_0
 10
19.8687259276032
 20
13.6719848632813
 30
0
 11
19.5809759276032
 21
13.4469848632813
 31
0
 62
 30 
  0
LINE
  8
Stift_0
 10
18.8306259276032
 20
11.2469848632813
 30
0
 11
18.6746509276032
 21
10.8644848632813
 31
0
 62
 30 
  0
ARC
  8
Stift_0
 10
19.1528259276032
 20
10.6994848632812
 30
0
 40
0.505842199331985
 50
160.962393551221
 51
197.763793551221
 62
 30 
  0
ARC
  8
Stift_0
 10
18.9392509276032
 20
10.7094848632813
 30
0
 40
0.314497102148639
 50
211.501051112793
 51
268.323951112793
 62
 30 
  0
LINE
  8
Stift_0
 10
18.9300523906497
 20
10.3951223111575
 30
0
 11
19.3694509276032
 21
10.4619848632813
 31
0
 62
 30 
  0
LINE
  8
Stift_0
 10
19.3694509276032
 20
10.4619848632813
 30
0
 11
19.9300759276032
 21
10.6594848632813
 31
0
 62
 30 
  0
LINE
  8
Stift_0
 10
19.9300759276032
 20
10.6594848632813
 30
0
 11
20.3965259276032
 21
10.8969848632813
 31
0
 62
 30 
  0
LINE
  8
Stift_0
 10
20.3965259276032
 20
10.8969848632813
 30
0
 11
20.7919759276032
 21
11.1519848632813
 31
0
 62
 30 
  0
LINE
  8
Stift_0
 10
20.7919759276032
 20
11.1519848632813
 30
0
 11
21.0818259276032
 21
11.3944848632814
 31
0
 62
 30 
  0
LINE
  8
Stift_0
 10
21.0818259276032
 20
11.3944848632814
 30
0
 11
21.2341759276032
 21
11.6794848632812
 31
0
 62
 30 
  0
LINE
  8
Stift_0
 10
21.2341759276032
 20
11.6794848632812
 30
0
 11
21.2853259276032
 21
11.9969848632813
 31
0
 62
 30 
  0
ARC
  8
Stift_0
 10
21.1026009276032
 20
12.0344848632813
 30
0
 40
0.186533309692933
 50
348.402423894806
 51
431.438723894806
 62
 30 
  0
LINE
  8
Stift_0
 10
21.1619779641942
 20
12.2113154125386
 30
0
 11
20.7281759276032
 21
12.0719848632813
 31
0
 62
 30 
  0
LINE
  8
Stift_0
 10
20.7281759276032
 20
12.0719848632813
 30
0
 11
20.1436759276032
 21
11.8419848632813
 31
0
 62
 30 
  0
LINE
  8
Stift_0
 10
20.1436759276032
 20
11.8419848632813
 30
0
 11
19.6098259276032
 21
11.6394848632813
 31
0
 62
 30 
  0
LINE
  8
Stift_0
 10
19.6098259276032
 20
11.6394848632813
 30
0
 11
19.1882009276032
 21
11.4894848632813
 31
0
 62
 30 
  0
ARC
  8
Stift_0
 10
19.5000009276032
 20
10.6419848632813
 30
0
 40
0.903036815417877
 50
110.198851646835
 51
137.849051646835
 62
 30 
  0
ARC
  8
Stift_0
 10
18.2399259276032
 20
9.69198486328128
 30
0
 40
0.193164722452107
 50
178.516753502256
 51
245.300853502256
 62
 30 
  0
LINE
  8
Stift_0
 10
18.1592113644789
 20
9.5164919309459
 30
0
 11
18.4527259276032
 21
9.45948486328132
 31
0
 62
 30 
  0
LINE
  8
Stift_0
 10
18.4527259276032
 20
9.45948486328132
 30
0
 11
18.8016509276032
 21
9.4844848632813
 31
0
 62
 30 
  0
LINE
  8
Stift_0
 10
18.8016509276032
 20
9.4844848632813
 30
0
 11
19.1285759276032
 21
9.59698486328125
 31
0
 62
 30 
  0
LINE
  8
Stift_0
 10
19.1285759276032
 20
9.59698486328125
 30
0
 11
19.3884759276032
 21
9.74698486328134
 31
0
 62
 30 
  0
LINE
  8
Stift_0
 10
19.3884759276032
 20
9.74698486328134
 30
0
 11
19.5750759276032
 21
9.95198486328127
 31
0
 62
 30 
  0
ARC
  8
Stift_0
 10
19.4814259276032
 20
10.0419848632813
 30
0
 40
0.129885805613983
 50
316.138590067647
 51
402.573490067647
 62
 30 
  0
LINE
  8
Stift_0
 10
19.5770751582748
 20
10.1298571977895
 30
0
 11
19.2869009276032
 21
10.1219848632813
 31
0
 62
 30 
  0
LINE
  8
Stift_0
 10
19.2869009276032
 20
10.1219848632813
 30
0
 11
18.8988509276032
 21
10.0519848632813
 31
0
 62
 30 
  0
LINE
  8
Stift_0
 10
18.8988509276032
 20
10.0519848632813
 30
0
 11
18.5321009276032
 21
9.98198486328135
 31
0
 62
 30 
  0
LINE
  8
Stift_0
 10
18.5321009276032
 20
9.98198486328135
 30
0
 11
18.1971259276032
 21
9.88948486328127
 31
0
 62
 30 
  0
ARC
  8
Stift_0
 10
18.3027759276032
 20
9.65198486328131
 30
0
 40
0.259938786063181
 50
113.981512220075
 51
170.013812220075
 62
 30 
  0
LINE
  8
Stift_0
 10
16.7993259276032
 20
56.8694848632813
 30
0
 11
16.1423009276032
 21
56.9444848632813
 31
0
 62
 30 
  0
ARC
  8
Stift_0
 10
16.1772259276032
 20
56.7394848632813
 30
0
 40
0.207953734337731
 50
99.6684171720991
 51
185.061517172099
 62
 30 
  0
LINE
  8
Stift_0
 10
15.9700830991249
 20
56.7211380860438
 30
0
 11
15.9612259276032
 21
56.3094848632813
 31
0
 62
 30 
  0
LINE
  8
Stift_0
 10
15.9612259276032
 20
56.3094848632813
 30
0
 11
16.2303009276032
 21
56.3094848632813
 31
0
 62
 30 
  0
LINE
  8
Stift_0
 10
16.2303009276032
 20
56.3094848632813
 30
0
 11
16.2303009276032
 21
56.0394848632814
 31
0
 62
 30 
  0
LINE
  8
Stift_0
 10
16.2303009276032
 20
56.0394848632814
 30
0
 11
15.8603259276032
 21
56.0394848632814
 31
0
 62
 30 
  0
LINE
  8
Stift_0
 10
15.8603259276032
 20
56.0394848632814
 30
0
 11
15.7258009276032
 21
55.1169848632812
 31
0
 62
 30 
  0
LINE
  8
Stift_0
 10
15.7258009276032
 20
55.1169848632812
 30
0
 11
16.6675259276032
 21
55.1169848632812
 31
0
 62
 30 
  0
LINE
  8
Stift_0
 10
16.6675259276032
 20
55.1169848632812
 30
0
 11
16.6690259276032
 21
55.5369848632813
 31
0
 62
 30 
  0
ARC
  8
Stift_0
 10
17.6048509276032
 20
55.7094848632813
 30
0
 40
0.951590605578374
 50
151.940459039959
 51
190.444059039959
 62
 30 
  0
ARC
  8
Stift_0
 10
16.9820509276032
 20
55.5119848632812
 30
0
 40
0.680617125770807
 50
55.9246449803339
 51
108.586744980334
 62
 30 
  0
ARC
  8
Stift_0
 10
16.6216759276032
 20
54.1444848632814
 30
0
 40
2.0687891284708
 50
50.1319486476095
 51
68.9903486476095
 62
 30 
  0
ARC
  8
Stift_0
 10
15.6583759276032
 20
53.1819848632813
 30
0
 40
3.42721136771042
 50
33.8189243025423
 51
48.0857243025423
 62
 30 
  0
ARC
  8
Stift_0
 10
20.7320509276032
 20
56.3294848632813
 30
0
 40
2.54838295886229
 50
209.116675014776
 51
229.435875014776
 62
 30 
  0
ARC
  8
Stift_0
 10
20.5462009276032
 20
56.9369848632813
 30
0
 40
2.93837522613767
 50
239.951073426044
 51
259.847173426044
 62
 30 
  0
LINE
  8
Stift_0
 10
20.0282407121142
 20
54.0446214378539
 30
0
 11
21.0361759276032
 21
53.7694848632814
 31
0
 62
 30 
  0
LINE
  8
Stift_0
 10
21.0361759276032
 20
53.7694848632814
 30
0
 11
21.8946259276032
 21
53.4794848632813
 31
0
 62
 30 
  0
LINE
  8
Stift_0
 10
21.8946259276032
 20
53.4794848632813
 30
0
 11
22.7438009276032
 21
53.1194848632813
 31
0
 62
 30 
  0
LINE
  8
Stift_0
 10
22.7438009276032
 20
53.1194848632813
 30
0
 11
23.5445009276032
 21
52.7844848632813
 31
0
 62
 30 
  0
ARC
  8
Stift_0
 10
23.8575259276032
 20
54.0669848632813
 30
0
 40
1.32014806011483
 50
256.283757558446
 51
288.009357558446
 62
 30 
  0
ARC
  8
Stift_0
 10
24.2544509276032
 20
53.1494848632813
 30
0
 40
0.338155236806233
 50
271.902820520443
 51
362.292620520443
 62
 30 
  0
ARC
  8
Stift_0
 10
23.1362009276032
 20
52.1219848632813
 30
0
 40
1.78999039519686
 50
35.5619310395448
 51
60.6840310395448
 62
 30 
  0
LINE
  8
Stift_0
 10
24.0126258483366
 20
53.682736276292
 30
0
 11
23.4391259276032
 21
54.1044848632813
 31
0
 62
 30 
  0
LINE
  8
Stift_0
 10
23.4391259276032
 20
54.1044848632813
 30
0
 11
22.9637759276032
 21
54.4744848632813
 31
0
 62
 30 
  0
LINE
  8
Stift_0
 10
22.9637759276032
 20
54.4744848632813
 30
0
 11
22.4646009276032
 21
54.9169848632813
 31
0
 62
 30 
  0
LINE
  8
Stift_0
 10
22.4646009276032
 20
54.9169848632813
 30
0
 11
21.9824259276032
 21
55.2994848632812
 31
0
 62
 30 
  0
LINE
  8
Stift_0
 10
21.9824259276032
 20
55.2994848632812
 30
0
 11
21.4644009276032
 21
55.6894848632813
 31
0
 62
 30 
  0
LINE
  8
Stift_0
 10
21.4644009276032
 20
55.6894848632813
 30
0
 11
20.7383759276032
 21
56.0244848632813
 31
0
 62
 30 
  0
LINE
  8
Stift_0
 10
20.7383759276032
 20
56.0244848632813
 30
0
 11
19.8872759276032
 21
56.2419848632812
 31
0
 62
 30 
  0
LINE
  8
Stift_0
 10
19.8872759276032
 20
56.2419848632812
 30
0
 11
18.8599259276032
 21
56.4669848632813
 31
0
 62
 30 
  0
LINE
  8
Stift_0
 10
18.8599259276032
 20
56.4669848632813
 30
0
 11
17.8064009276032
 21
56.6844848632813
 31
0
 62
 30 
  0
LINE
  8
Stift_0
 10
17.8064009276032
 20
56.6844848632813
 30
0
 11
16.7993259276032
 21
56.8694848632813
 31
0
 62
 30 
  0
ARC
  8
Stift_0
 10
18.9543509276032
 20
51.7469848632813
 30
0
 40
1.70655772701215
 50
66.4986565659175
 51
92.3222565659175
 62
 30 
  0
ARC
  8
Stift_0
 10
18.9553759276032
 20
52.6394848632813
 30
0
 40
0.815680418941502
 50
94.9353698635653
 51
151.425569863565
 62
 30 
  0
ARC
  8
Stift_0
 10
19.7947759276032
 20
52.5419848632813
 30
0
 40
1.63036234972332
 50
162.596498197565
 51
197.484498197565
 62
 30 
  0
LINE
  8
Stift_0
 10
18.2397391323649
 20
52.0521461583485
 30
0
 11
18.5609259276032
 21
50.9494848632812
 31
0
 62
 30 
  0
LINE
  8
Stift_0
 10
18.5609259276032
 20
50.9494848632812
 30
0
 11
18.9383509276032
 21
49.7919848632813
 31
0
 62
 30 
  0
LINE
  8
Stift_0
 10
18.9383509276032
 20
49.7919848632813
 30
0
 11
19.4429509276032
 21
48.4419848632813
 31
0
 62
 30 
  0
LINE
  8
Stift_0
 10
19.4429509276032
 20
48.4419848632813
 30
0
 11
20.0042759276032
 21
47.1019848632814
 31
0
 62
 30 
  0
LINE
  8
Stift_0
 10
20.0042759276032
 20
47.1019848632814
 30
0
 11
20.4090509276032
 21
46.2619848632812
 31
0
 62
 30 
  0
ARC
  8
Stift_0
 10
21.0335759276032
 20
46.6019848632814
 30
0
 40
0.711077686068855
 50
208.564480420076
 51
252.504180420076
 62
 30 
  0
ARC
  8
Stift_0
 10
20.9518759276032
 20
46.7369848632812
 30
0
 40
0.823838379198099
 50
260.774674913513
 51
297.959974913513
 62
 30 
  0
LINE
  8
Stift_0
 10
21.3381363808821
 20
46.0093087421445
 30
0
 11
21.9644759276032
 21
46.3744848632813
 31
0
 62
 30 
  0
LINE
  8
Stift_0
 10
21.9644759276032
 20
46.3744848632813
 30
0
 11
22.5807509276032
 21
46.8469848632813
 31
0
 62
 30 
  0
LINE
  8
Stift_0
 10
22.5807509276032
 20
46.8469848632813
 30
0
 11
23.0464509276032
 21
47.3544848632813
 31
0
 62
 30 
  0
LINE
  8
Stift_0
 10
23.0464509276032
 20
47.3544848632813
 30
0
 11
23.4981009276032
 21
47.8919848632813
 31
0
 62
 30 
  0
LINE
  8
Stift_0
 10
23.4981009276032
 20
47.8919848632813
 30
0
 11
24.0127259276032
 21
48.5419848632813
 31
0
 62
 30 
  0
LINE
  8
Stift_0
 10
24.0127259276032
 20
48.5419848632813
 30
0
 11
24.1752509276032
 21
50.1669848632813
 31
0
 62
 30 
  0
LINE
  8
Stift_0
 10
24.1752509276032
 20
50.1669848632813
 30
0
 11
22.8751259276032
 21
48.5694848632813
 31
0
 62
 30 
  0
LINE
  8
Stift_0
 10
22.8751259276032
 20
48.5694848632813
 30
0
 11
22.8289259276032
 21
48.5694848632813
 31
0
 62
 30 
  0
LINE
  8
Stift_0
 10
22.8289259276032
 20
48.5694848632813
 30
0
 11
22.8726259276032
 21
49.0694848632813
 31
0
 62
 30 
  0
LINE
  8
Stift_0
 10
22.8726259276032
 20
49.0694848632813
 30
0
 11
23.0781009276032
 21
49.8794848632813
 31
0
 62
 30 
  0
LINE
  8
Stift_0
 10
23.0781009276032
 20
49.8794848632813
 30
0
 11
23.1324009276032
 21
50.8694848632813
 31
0
 62
 30 
  0
LINE
  8
Stift_0
 10
23.1324009276032
 20
50.8694848632813
 30
0
 11
23.1192009276032
 21
51.5794848632813
 31
0
 62
 30 
  0
ARC
  8
Stift_0
 10
22.7285509276032
 20
51.4694848632813
 30
0
 40
0.405841622434155
 50
15.7262629867069
 51
70.2500629867069
 62
 30 
  0
LINE
  8
Stift_0
 10
22.8656911767777
 20
51.8514534150711
 30
0
 11
22.3644509276032
 21
52.1244848632813
 31
0
 62
 30 
  0
LINE
  8
Stift_0
 10
22.3644509276032
 20
52.1244848632813
 30
0
 11
21.7416009276032
 21
52.4044848632813
 31
0
 62
 30 
  0
LINE
  8
Stift_0
 10
21.7416009276032
 20
52.4044848632813
 30
0
 11
21.1835009276032
 21
52.6794848632812
 31
0
 62
 30 
  0
LINE
  8
Stift_0
 10
21.1835009276032
 20
52.6794848632812
 30
0
 11
20.4697259276032
 21
53.0144848632813
 31
0
 62
 30 
  0
LINE
  8
Stift_0
 10
20.4697259276032
 20
53.0144848632813
 30
0
 11
19.6348759276032
 21
53.3119848632813
 31
0
 62
 30 
  0
LINE
  8
Stift_0
 10
23.3438759276032
 20
17.2844848632813
 30
0
 11
23.4391509276032
 21
15.7994848632812
 31
0
 62
 30 
  0
LINE
  8
Stift_0
 10
23.4391509276032
 20
15.7994848632812
 30
0
 11
24.1442259276032
 21
16.7894848632814
 31
0
 62
 30 
  0
LINE
  8
Stift_0
 10
24.1442259276032
 20
16.7894848632814
 30
0
 11
23.3438759276032
 21
17.2844848632813
 31
0
 62
 30 
  0
LINE
  8
Stift_0
 10
24.4300509276032
 20
16.6369848632812
 30
0
 11
23.9536509276032
 21
15.9694848632813
 31
0
 62
 30 
  0
LINE
  8
Stift_0
 10
23.9536509276032
 20
15.9694848632813
 30
0
 11
25.3066509276032
 21
16.0644848632813
 31
0
 62
 30 
  0
LINE
  8
Stift_0
 10
25.3066509276032
 20
16.0644848632813
 30
0
 11
24.4300509276032
 21
16.6369848632812
 31
0
 62
 30 
  0
LINE
  8
Stift_0
 10
23.7059259276032
 20
15.6844848632813
 30
0
 11
23.3629259276032
 21
15.1319848632813
 31
0
 62
 30 
  0
LINE
  8
Stift_0
 10
23.3629259276032
 20
15.1319848632813
 30
0
 11
23.3629259276032
 21
14.6744848632812
 31
0
 62
 30 
  0
LINE
  8
Stift_0
 10
23.3629259276032
 20
14.6744848632812
 30
0
 11
24.5062759276032
 21
14.6744848632812
 31
0
 62
 30 
  0
LINE
  8
Stift_0
 10
24.5062759276032
 20
14.6744848632812
 30
0
 11
25.0969009276032
 21
15.6844848632813
 31
0
 62
 30 
  0
LINE
  8
Stift_0
 10
25.0969009276032
 20
15.6844848632813
 30
0
 11
23.7059259276032
 21
15.6844848632813
 31
0
 62
 30 
  0
LINE
  8
Stift_0
 10
23.3248259276032
 20
14.3694848632813
 30
0
 11
23.1342759276032
 21
13.4744848632813
 31
0
 62
 30 
  0
LINE
  8
Stift_0
 10
23.1342759276032
 20
13.4744848632813
 30
0
 11
23.5916009276032
 21
13.4744848632813
 31
0
 62
 30 
  0
LINE
  8
Stift_0
 10
23.5916009276032
 20
13.4744848632813
 30
0
 11
24.2204259276032
 21
14.3694848632813
 31
0
 62
 30 
  0
LINE
  8
Stift_0
 10
24.2204259276032
 20
14.3694848632813
 30
0
 11
23.3248259276032
 21
14.3694848632813
 31
0
 62
 30 
  0
LINE
  8
Stift_0
 10
22.9818259276032
 20
12.9394848632813
 30
0
 11
22.8850509276032
 21
12.4969848632813
 31
0
 62
 30 
  0
LINE
  8
Stift_0
 10
22.8850509276032
 20
12.4969848632813
 30
0
 11
22.7341009276032
 21
12.0444848632814
 31
0
 62
 30 
  0
LINE
  8
Stift_0
 10
22.7341009276032
 20
12.0444848632814
 30
0
 11
23.6678259276032
 21
11.7969848632813
 31
0
 62
 30 
  0
LINE
  8
Stift_0
 10
23.6678259276032
 20
11.7969848632813
 30
0
 11
23.7821509276032
 21
12.9019848632813
 31
0
 62
 30 
  0
LINE
  8
Stift_0
 10
23.7821509276032
 20
12.9019848632813
 30
0
 11
22.9818259276032
 21
12.9394848632813
 31
0
 62
 30 
  0
LINE
  8
Stift_0
 10
24.2776009276032
 20
12.8644848632813
 30
0
 11
24.1061009276032
 21
11.5869848632813
 31
0
 62
 30 
  0
LINE
  8
Stift_0
 10
24.1061009276032
 20
11.5869848632813
 30
0
 11
25.3256509276032
 21
10.9969848632813
 31
0
 62
 30 
  0
LINE
  8
Stift_0
 10
25.3256509276032
 20
10.9969848632813
 30
0
 11
25.4399009276032
 21
12.2344848632813
 31
0
 62
 30 
  0
LINE
  8
Stift_0
 10
25.4399009276032
 20
12.2344848632813
 30
0
 11
24.2776009276032
 21
12.8644848632813
 31
0
 62
 30 
  0
LINE
  8
Stift_0
 10
25.8401509276032
 20
12.0244848632813
 30
0
 11
25.6496509276032
 21
10.7494848632813
 31
0
 62
 30 
  0
LINE
  8
Stift_0
 10
25.6496509276032
 20
10.7494848632813
 30
0
 11
26.9071509276032
 21
9.89198486328132
 31
0
 62
 30 
  0
LINE
  8
Stift_0
 10
26.9071509276032
 20
9.89198486328132
 30
0
 11
27.0979009276032
 21
11.2619848632812
 31
0
 62
 30 
  0
LINE
  8
Stift_0
 10
27.0979009276032
 20
11.2619848632812
 30
0
 11
25.8401509276032
 21
12.0244848632813
 31
0
 62
 30 
  0
LINE
  8
Stift_0
 10
23.2676509276032
 20
9.28198486328131
 30
0
 11
24.0870509276032
 21
9.33948486328131
 31
0
 62
 30 
  0
LINE
  8
Stift_0
 10
24.0870509276032
 20
9.33948486328131
 30
0
 11
23.4582259276032
 21
9.73948486328129
 31
0
 62
 30 
  0
LINE
  8
Stift_0
 10
23.4582259276032
 20
9.73948486328129
 30
0
 11
23.2676509276032
 21
9.28198486328131
 31
0
 62
 30 
  0
LINE
  8
Stift_0
 10
23.9536509276032
 20
11.2069848632814
 30
0
 11
23.5535009276032
 21
10.0619848632813
 31
0
 62
 30 
  0
LINE
  8
Stift_0
 10
23.5535009276032
 20
10.0619848632813
 30
0
 11
24.8873759276032
 21
9.37698486328134
 31
0
 62
 30 
  0
LINE
  8
Stift_0
 10
24.8873759276032
 20
9.37698486328134
 30
0
 11
25.1731509276032
 21
10.5769848632813
 31
0
 62
 30 
  0
LINE
  8
Stift_0
 10
25.1731509276032
 20
10.5769848632813
 30
0
 11
23.9536509276032
 21
11.2069848632814
 31
0
 62
 30 
  0
LINE
  8
Stift_0
 10
22.5435509276032
 20
11.7394848632813
 30
0
 11
22.3496009276032
 21
11.1794848632812
 31
0
 62
 30 
  0
LINE
  8
Stift_0
 10
22.3496009276032
 20
11.1794848632812
 30
0
 11
21.9909259276032
 21
10.6719848632813
 31
0
 62
 30 
  0
LINE
  8
Stift_0
 10
21.9909259276032
 20
10.6719848632813
 30
0
 11
23.2486009276032
 21
10.3294848632813
 31
0
 62
 30 
  0
LINE
  8
Stift_0
 10
23.2486009276032
 20
10.3294848632813
 30
0
 11
23.5153759276032
 21
11.3769848632813
 31
0
 62
 30 
  0
LINE
  8
Stift_0
 10
23.5153759276032
 20
11.3769848632813
 30
0
 11
22.5435509276032
 21
11.7394848632813
 31
0
 62
 30 
  0
LINE
  8
Stift_0
 10
25.3066509276032
 20
9.5469848632813
 30
0
 11
25.7956509276032
 21
9.58948486328131
 31
0
 62
 30 
  0
LINE
  8
Stift_0
 10
25.7956509276032
 20
9.58948486328131
 30
0
 11
26.3166509276032
 21
9.73948486328129
 31
0
 62
 30 
  0
LINE
  8
Stift_0
 10
26.3166509276032
 20
9.73948486328129
 30
0
 11
25.5351509276032
 21
10.3869848632812
 31
0
 62
 30 
  0
LINE
  8
Stift_0
 10
25.5351509276032
 20
10.3869848632812
 30
0
 11
25.3066509276032
 21
9.5469848632813
 31
0
 62
 30 
  0
LINE
  8
Stift_0
 10
27.4216509276032
 20
11.0144848632813
 30
0
 11
27.3646509276033
 21
10.0619848632813
 31
0
 62
 30 
  0
LINE
  8
Stift_0
 10
27.3646509276033
 20
10.0619848632813
 30
0
 11
27.8129009276032
 21
10.2094848632813
 31
0
 62
 30 
  0
LINE
  8
Stift_0
 10
27.8129009276032
 20
10.2094848632813
 30
0
 11
28.1269009276032
 21
10.5019848632813
 31
0
 62
 30 
  0
LINE
  8
Stift_0
 10
28.1269009276032
 20
10.5019848632813
 30
0
 11
27.4216509276032
 21
11.0144848632813
 31
0
 62
 30 
  0
LINE
  8
Stift_0
 10
27.5361509276032
 20
12.7869848632813
 30
0
 11
27.4789009276032
 21
11.4144848632814
 31
0
 62
 30 
  0
LINE
  8
Stift_0
 10
27.4789009276032
 20
11.4144848632814
 30
0
 11
28.4699009276032
 21
10.7869848632813
 31
0
 62
 30 
  0
LINE
  8
Stift_0
 10
28.4699009276032
 20
10.7869848632813
 30
0
 11
28.7951509276032
 21
11.2094848632813
 31
0
 62
 30 
  0
LINE
  8
Stift_0
 10
28.7951509276032
 20
11.2094848632813
 30
0
 11
28.9844009276032
 21
11.7194848632813
 31
0
 62
 30 
  0
LINE
  8
Stift_0
 10
28.9844009276032
 20
11.7194848632813
 30
0
 11
27.5361509276032
 21
12.7869848632813
 31
0
 62
 30 
  0
LINE
  8
Stift_0
 10
21.6860509276032
 20
10.3869848632812
 30
0
 11
21.2497009276032
 21
9.83448486328132
 31
0
 62
 30 
  0
LINE
  8
Stift_0
 10
21.2497009276032
 20
9.83448486328132
 30
0
 11
20.5808259276032
 21
9.20448486328132
 31
0
 62
 30 
  0
LINE
  8
Stift_0
 10
20.5808259276032
 20
9.20448486328132
 30
0
 11
22.7722009276032
 21
9.20448486328132
 31
0
 62
 30 
  0
LINE
  8
Stift_0
 10
22.7722009276032
 20
9.20448486328132
 30
0
 11
23.0199259276032
 21
9.96698486328125
 31
0
 62
 30 
  0
LINE
  8
Stift_0
 10
23.0199259276032
 20
9.96698486328125
 30
0
 11
21.6860509276032
 21
10.3869848632812
 31
0
 62
 30 
  0
LINE
  8
Stift_0
 10
3.74492592760325
 20
15.9244848632812
 30
0
 11
3.99047592760324
 21
14.5494848632812
 31
0
 62
 30 
  0
LINE
  8
Stift_0
 10
3.99047592760324
 20
14.5494848632812
 30
0
 11
5.29180092760325
 21
14.7694848632814
 31
0
 62
 30 
  0
LINE
  8
Stift_0
 10
5.29180092760325
 20
14.7694848632814
 30
0
 11
5.14447592760325
 21
16.0719848632813
 31
0
 62
 30 
  0
LINE
  8
Stift_0
 10
5.14447592760325
 20
16.0719848632813
 30
0
 11
3.74492592760325
 21
15.9244848632812
 31
0
 62
 30 
  0
LINE
  8
Stift_0
 10
5.51280092760325
 20
16.2194848632813
 30
0
 11
5.61100092760325
 21
14.8669848632812
 31
0
 62
 30 
  0
LINE
  8
Stift_0
 10
5.61100092760325
 20
14.8669848632812
 30
0
 11
7.23155092760324
 21
15.0894848632813
 31
0
 62
 30 
  0
LINE
  8
Stift_0
 10
7.23155092760324
 20
15.0894848632813
 30
0
 11
7.05967592760324
 21
16.2669848632813
 31
0
 62
 30 
  0
LINE
  8
Stift_0
 10
7.05967592760324
 20
16.2669848632813
 30
0
 11
5.51280092760325
 21
16.2194848632813
 31
0
 62
 30 
  0
LINE
  8
Stift_0
 10
5.46367592760325
 20
17.6669848632813
 30
0
 11
5.46367592760325
 21
16.5369848632813
 31
0
 62
 30 
  0
LINE
  8
Stift_0
 10
5.46367592760325
 20
16.5369848632813
 30
0
 11
6.98602592760325
 21
16.6369848632812
 31
0
 62
 30 
  0
LINE
  8
Stift_0
 10
6.98602592760325
 20
16.6369848632812
 30
0
 11
6.93690092760324
 21
17.0544848632812
 31
0
 62
 30 
  0
LINE
  8
Stift_0
 10
6.93690092760324
 20
17.0544848632812
 30
0
 11
6.47037592760324
 21
17.7419848632812
 31
0
 62
 30 
  0
LINE
  8
Stift_0
 10
6.47037592760324
 20
17.7419848632812
 30
0
 11
5.46367592760325
 21
17.6669848632813
 31
0
 62
 30 
  0
LINE
  8
Stift_0
 10
2.27170842760325
 20
15.7769848632813
 30
0
 11
2.46812592760325
 21
14.2544848632813
 31
0
 62
 30 
  0
LINE
  8
Stift_0
 10
2.46812592760325
 20
14.2544848632813
 30
0
 11
3.67127592760325
 21
14.4744848632813
 31
0
 62
 30 
  0
LINE
  8
Stift_0
 10
3.67127592760325
 20
14.4744848632813
 30
0
 11
3.37662592760325
 21
15.8494848632813
 31
0
 62
 30 
  0
LINE
  8
Stift_0
 10
3.37662592760325
 20
15.8494848632813
 30
0
 11
2.27170842760325
 21
15.7769848632813
 31
0
 62
 30 
  0
LINE
  8
Stift_0
 10
3.49940092760325
 20
17.4469848632813
 30
0
 11
3.57305092760325
 21
16.3169848632813
 31
0
 62
 30 
  0
LINE
  8
Stift_0
 10
3.57305092760325
 20
16.3169848632813
 30
0
 11
5.16905092760325
 21
16.4644848632813
 31
0
 62
 30 
  0
LINE
  8
Stift_0
 10
5.16905092760325
 20
16.4644848632813
 30
0
 11
5.11992592760325
 21
17.5944848632813
 31
0
 62
 30 
  0
LINE
  8
Stift_0
 10
5.11992592760325
 20
17.5944848632813
 30
0
 11
3.49940092760325
 21
17.4469848632813
 31
0
 62
 30 
  0
LINE
  8
Stift_0
 10
5.09537592760325
 20
18.8219848632813
 30
0
 11
4.31325092760324
 21
18.4319848632813
 31
0
 62
 30 
  0
LINE
  8
Stift_0
 10
4.31325092760324
 20
18.4319848632813
 30
0
 11
3.67127592760325
 21
17.8644848632813
 31
0
 62
 30 
  0
LINE
  8
Stift_0
 10
3.67127592760325
 20
17.8644848632813
 30
0
 11
5.09537592760325
 21
17.9369848632813
 31
0
 62
 30 
  0
LINE
  8
Stift_0
 10
5.09537592760325
 20
17.9369848632813
 30
0
 11
5.09537592760325
 21
18.8219848632813
 31
0
 62
 30 
  0
LINE
  8
Stift_0
 10
7.36245092760324
 20
19.1969848632813
 30
0
 11
6.88780092760324
 21
19.2394848632813
 31
0
 62
 30 
  0
LINE
  8
Stift_0
 10
6.88780092760324
 20
19.2394848632813
 30
0
 11
6.98602592760325
 21
18.2569848632813
 31
0
 62
 30 
  0
LINE
  8
Stift_0
 10
6.98602592760325
 20
18.2569848632813
 30
0
 11
7.67352592760325
 21
18.9444848632813
 31
0
 62
 30 
  0
LINE
  8
Stift_0
 10
7.67352592760325
 20
18.9444848632813
 30
0
 11
7.36245092760324
 21
19.1969848632813
 31
0
 62
 30 
  0
LINE
  8
Stift_0
 10
5.70922592760325
 20
14.4744848632813
 30
0
 11
5.93020092760325
 21
12.8044848632812
 31
0
 62
 30 
  0
LINE
  8
Stift_0
 10
5.93020092760325
 20
12.8044848632812
 30
0
 11
7.72262592760325
 21
13.3469848632813
 31
0
 62
 30 
  0
LINE
  8
Stift_0
 10
7.72262592760325
 20
13.3469848632813
 30
0
 11
7.35432592760325
 21
14.7219848632813
 31
0
 62
 30 
  0
LINE
  8
Stift_0
 10
7.35432592760325
 20
14.7219848632813
 30
0
 11
5.70922592760325
 21
14.4744848632813
 31
0
 62
 30 
  0
LINE
  8
Stift_0
 10
5.43912592760325
 20
18.0594848632813
 30
0
 11
6.22485092760325
 21
18.0594848632813
 31
0
 62
 30 
  0
LINE
  8
Stift_0
 10
6.22485092760325
 20
18.0594848632813
 30
0
 11
5.48825092760325
 21
19.1169848632812
 31
0
 62
 30 
  0
LINE
  8
Stift_0
 10
5.48825092760325
 20
19.1169848632812
 30
0
 11
5.43912592760325
 21
18.0594848632813
 31
0
 62
 30 
  0
LINE
  8
Stift_0
 10
4.08867592760325
 20
14.1794848632812
 30
0
 11
4.62885092760324
 21
12.3644848632813
 31
0
 62
 30 
  0
LINE
  8
Stift_0
 10
4.62885092760324
 20
12.3644848632813
 30
0
 11
5.66012592760325
 21
12.7069848632814
 31
0
 62
 30 
  0
LINE
  8
Stift_0
 10
5.66012592760325
 20
12.7069848632814
 30
0
 11
5.34092592760325
 21
14.3769848632813
 31
0
 62
 30 
  0
LINE
  8
Stift_0
 10
5.34092592760325
 20
14.3769848632813
 30
0
 11
4.08867592760325
 21
14.1794848632812
 31
0
 62
 30 
  0
LINE
  8
Stift_0
 10
2.57840092760325
 20
16.9669848632813
 30
0
 11
2.22260092760324
 21
16.4894848632813
 31
0
 62
 30 
  0
LINE
  8
Stift_0
 10
2.22260092760324
 20
16.4894848632813
 30
0
 11
2.24715342760324
 21
16.1194848632813
 31
0
 62
 30 
  0
LINE
  8
Stift_0
 10
2.24715342760324
 20
16.1194848632813
 30
0
 11
3.27840092760325
 21
16.2194848632813
 31
0
 62
 30 
  0
LINE
  8
Stift_0
 10
3.27840092760325
 20
16.2194848632813
 30
0
 11
3.10652592760325
 21
17.3719848632813
 31
0
 62
 30 
  0
LINE
  8
Stift_0
 10
3.10652592760325
 20
17.3719848632813
 30
0
 11
2.57840092760325
 21
16.9669848632813
 31
0
 62
 30 
  0
ARC
  8
Stift_0
 10
2.62752592760324
 20
14.7744848632813
 30
0
 40
1.30575445042564
 50
142.494078688236
 51
180.522078688236
 62
 30 
  0
ARC
  8
Stift_0
 10
2.15406592760324
 20
14.8444848632813
 30
0
 40
0.836260176150522
 50
185.620182775848
 51
245.475282775848
 62
 30 
  0
LINE
  8
Stift_0
 10
1.8069462380264
 20
14.0836701661814
 30
0
 11
2.14894092760325
 21
14.1569848632813
 31
0
 62
 30 
  0
LINE
  8
Stift_0
 10
2.14894092760325
 20
14.1569848632813
 30
0
 11
1.90340342760324
 21
15.6794848632812
 31
0
 62
 30 
  0
ARC
  8
Stift_0
 10
1.79018592760324
 20
15.5019848632813
 30
0
 40
0.210533731991425
 50
57.4684337118825
 51
160.934433711882
 62
 30 
  0
LINE
  8
Stift_0
 10
6.40920092760324
 20
19.3094848632813
 30
0
 11
6.10207592760325
 21
19.1644848632814
 31
0
 62
 30 
  0
LINE
  8
Stift_0
 10
6.10207592760325
 20
19.1644848632814
 30
0
 11
6.66682592760325
 21
18.4044848632813
 31
0
 62
 30 
  0
LINE
  8
Stift_0
 10
6.66682592760325
 20
18.4044848632813
 30
0
 11
6.69137592760325
 21
19.2644848632813
 31
0
 62
 30 
  0
LINE
  8
Stift_0
 10
6.69137592760325
 20
19.2644848632813
 30
0
 11
6.40920092760324
 21
19.3094848632813
 31
0
 62
 30 
  0
LINE
  8
Stift_0
 10
3.40117592760325
 20
11.8469848632813
 30
0
 11
2.46812592760325
 21
11.3069848632813
 31
0
 62
 30 
  0
LINE
  8
Stift_0
 10
2.46812592760325
 20
11.3069848632813
 30
0
 11
3.35207592760325
 21
9.83448486328132
 31
0
 62
 30 
  0
LINE
  8
Stift_0
 10
3.35207592760325
 20
9.83448486328132
 30
0
 11
4.62885092760324
 21
10.6194848632813
 31
0
 62
 30 
  0
LINE
  8
Stift_0
 10
4.62885092760324
 20
10.6194848632813
 30
0
 11
4.38332592760325
 21
11.1119848632812
 31
0
 62
 30 
  0
LINE
  8
Stift_0
 10
4.38332592760325
 20
11.1119848632812
 30
0
 11
3.40117592760325
 21
11.8469848632813
 31
0
 62
 30 
  0
LINE
  8
Stift_0
 10
2.05072592760324
 20
13.0269848632813
 30
0
 11
1.68242092760324
 21
12.6344848632813
 31
0
 62
 30 
  0
LINE
  8
Stift_0
 10
1.68242092760324
 20
12.6344848632813
 30
0
 11
2.34536842760324
 21
11.6019848632814
 31
0
 62
 30 
  0
LINE
  8
Stift_0
 10
2.34536842760324
 20
11.6019848632814
 30
0
 11
3.20475092760325
 21
12.0194848632814
 31
0
 62
 30 
  0
LINE
  8
Stift_0
 10
3.20475092760325
 20
12.0194848632814
 30
0
 11
2.05072592760324
 21
13.0269848632813
 31
0
 62
 30 
  0
LINE
  8
Stift_0
 10
8.61055092760325
 20
8.99698486328134
 30
0
 11
7.82085092760325
 21
9.36698486328123
 31
0
 62
 30 
  0
LINE
  8
Stift_0
 10
7.82085092760325
 20
9.36698486328123
 30
0
 11
8.02970092760325
 21
8.80198486328129
 31
0
 62
 30 
  0
LINE
  8
Stift_0
 10
8.02970092760325
 20
8.80198486328129
 30
0
 11
9.44137592760324
 21
8.67948486328123
 31
0
 62
 30 
  0
LINE
  8
Stift_0
 10
9.44137592760324
 20
8.67948486328123
 30
0
 11
8.61055092760325
 21
8.99698486328134
 31
0
 62
 30 
  0
LINE
  8
Stift_0
 10
6.32810092760324
 20
10.0469848632813
 30
0
 11
4.84985092760325
 21
10.9394848632813
 31
0
 62
 30 
  0
LINE
  8
Stift_0
 10
4.84985092760325
 20
10.9394848632813
 30
0
 11
5.73377592760325
 21
9.22198486328125
 31
0
 62
 30 
  0
LINE
  8
Stift_0
 10
5.73377592760325
 20
9.22198486328125
 30
0
 11
7.67352592760325
 21
8.92698486328129
 31
0
 62
 30 
  0
LINE
  8
Stift_0
 10
7.67352592760325
 20
8.92698486328129
 30
0
 11
7.40342592760324
 21
9.53948486328136
 31
0
 62
 30 
  0
LINE
  8
Stift_0
 10
7.40342592760324
 20
9.53948486328136
 30
0
 11
6.32810092760324
 21
10.0469848632813
 31
0
 62
 30 
  0
LINE
  8
Stift_0
 10
0.626610927603245
 20
11.3569848632814
 30
0
 11
2.86100092760324
 21
10.1544848632813
 31
0
 62
 30 
  0
LINE
  8
Stift_0
 10
2.86100092760324
 20
10.1544848632813
 30
0
 11
1.51054342760324
 21
12.4369848632813
 31
0
 62
 30 
  0
LINE
  8
Stift_0
 10
1.51054342760324
 20
12.4369848632813
 30
0
 11
0.626610927603245
 21
11.3569848632814
 31
0
 62
 30 
  0
LINE
  8
Stift_0
 10
13.7137259276032
 20
13.0519848632813
 30
0
 11
14.1311259276032
 21
12.0944848632813
 31
0
 62
 30 
  0
LINE
  8
Stift_0
 10
14.1311259276032
 20
12.0944848632813
 30
0
 11
14.5485509276032
 21
13.0269848632813
 31
0
 62
 30 
  0
LINE
  8
Stift_0
 10
14.5485509276032
 20
13.0269848632813
 30
0
 11
13.7137259276032
 21
13.0519848632813
 31
0
 62
 30 
  0
LINE
  8
Stift_0
 10
12.3387259276032
 20
12.4369848632813
 30
0
 11
12.6088009276032
 21
11.8244848632812
 31
0
 62
 30 
  0
LINE
  8
Stift_0
 10
12.6088009276032
 20
11.8244848632812
 30
0
 11
13.5909509276032
 21
12.5344848632813
 31
0
 62
 30 
  0
LINE
  8
Stift_0
 10
13.5909509276032
 20
12.5344848632813
 30
0
 11
13.2963009276032
 21
13.0519848632813
 31
0
 62
 30 
  0
LINE
  8
Stift_0
 10
13.2963009276032
 20
13.0519848632813
 30
0
 11
12.3387259276032
 21
12.4369848632813
 31
0
 62
 30 
  0
LINE
  8
Stift_0
 10
10.2271009276032
 20
13.7144848632813
 30
0
 11
10.4726259276032
 21
13.0519848632813
 31
0
 62
 30 
  0
LINE
  8
Stift_0
 10
10.4726259276032
 20
13.0519848632813
 30
0
 11
11.6266509276032
 21
13.4919848632812
 31
0
 62
 30 
  0
ARC
  8
Stift_0
 10
10.7682259276032
 20
12.6444848632814
 30
0
 40
1.20629587192567
 50
44.6330742360215
 51
76.4749742360215
 62
 30 
  0
ARC
  8
Stift_0
 10
10.9257759276032
 20
11.4944848632813
 30
0
 40
2.32618035872333
 50
86.9303544620143
 51
107.446154462014
 62
 30 
  0
LINE
  8
Stift_0
 10
11.1110259276032
 20
11.6269848632813
 30
0
 11
11.4302259276032
 21
10.9394848632813
 31
0
 62
 30 
  0
LINE
  8
Stift_0
 10
11.4302259276032
 20
10.9394848632813
 30
0
 11
12.3632759276032
 21
11.5769848632813
 31
0
 62
 30 
  0
LINE
  8
Stift_0
 10
12.3632759276032
 20
11.5769848632813
 30
0
 11
12.0440759276032
 21
12.2169848632813
 31
0
 62
 30 
  0
LINE
  8
Stift_0
 10
12.0440759276032
 20
12.2169848632813
 30
0
 11
11.1110259276032
 21
11.6269848632813
 31
0
 62
 30 
  0
LINE
  8
Stift_0
 10
11.6757759276032
 20
13.0744848632812
 30
0
 11
10.6199509276032
 21
12.7069848632814
 31
0
 62
 30 
  0
LINE
  8
Stift_0
 10
10.6199509276032
 20
12.7069848632814
 30
0
 11
10.9637009276032
 21
11.9719848632813
 31
0
 62
 30 
  0
LINE
  8
Stift_0
 10
10.9637009276032
 20
11.9719848632813
 30
0
 11
11.8967509276032
 21
12.5594848632813
 31
0
 62
 30 
  0
LINE
  8
Stift_0
 10
11.8967509276032
 20
12.5594848632813
 30
0
 11
11.6757759276032
 21
13.0744848632812
 31
0
 62
 30 
  0
LINE
  8
Stift_0
 10
4.77617592760325
 20
10.4969848632813
 30
0
 11
3.76947592760325
 21
9.78448486328125
 31
0
 62
 30 
  0
LINE
  8
Stift_0
 10
3.76947592760325
 20
9.78448486328125
 30
0
 11
4.28510092760324
 21
9.63698486328121
 31
0
 62
 30 
  0
ARC
  8
Stift_0
 10
4.66962592760324
 20
9.60698486328135
 30
0
 40
0.385693499588722
 50
116.320315407541
 51
175.538915407541
 62
 30 
  0
ARC
  8
Stift_0
 10
4.55100092760325
 20
9.69448486328133
 30
0
 40
0.263469145023548
 50
26.1081254909109
 51
101.468925490911
 62
 30 
  0
ARC
  8
Stift_0
 10
4.45837592760325
 20
9.62698486328134
 30
0
 40
0.376870856471705
 50
335.120650018196
 51
389.127550018196
 62
 30 
  0
LINE
  8
Stift_0
 10
4.80027154851522
 20
9.46843194826897
 30
0
 11
5.36547592760325
 21
9.36698486328123
 31
0
 62
 30 
  0
LINE
  8
Stift_0
 10
5.36547592760325
 20
9.36698486328123
 30
0
 11
4.77617592760325
 21
10.4969848632813
 31
0
 62
 30 
  0
LINE
  8
Stift_0
 10
7.79627592760324
 20
13.0019848632813
 30
0
 11
6.02842592760325
 21
12.4619848632813
 31
0
 62
 30 
  0
LINE
  8
Stift_0
 10
6.02842592760325
 20
12.4619848632813
 30
0
 11
6.22485092760325
 21
11.6994848632812
 31
0
 62
 30 
  0
LINE
  8
Stift_0
 10
6.22485092760325
 20
11.6994848632812
 30
0
 11
6.96145092760325
 21
11.5044848632813
 31
0
 62
 30 
  0
LINE
  8
Stift_0
 10
6.96145092760325
 20
11.5044848632813
 30
0
 11
8.11547592760325
 21
11.9944848632813
 31
0
 62
 30 
  0
LINE
  8
Stift_0
 10
8.11547592760325
 20
11.9944848632813
 30
0
 11
7.79627592760324
 21
13.0019848632813
 31
0
 62
 30 
  0
LINE
  8
Stift_0
 10
5.73377592760325
 20
12.3144848632813
 30
0
 11
5.04627592760325
 21
12.1169848632812
 31
0
 62
 30 
  0
LINE
  8
Stift_0
 10
5.04627592760325
 20
12.1169848632812
 30
0
 11
5.83200092760325
 21
11.8469848632813
 31
0
 62
 30 
  0
LINE
  8
Stift_0
 10
5.83200092760325
 20
11.8469848632813
 30
0
 11
5.73377592760325
 21
12.3144848632813
 31
0
 62
 30 
  0
LINE
  8
Stift_0
 10
2.64000092760325
 20
13.9344848632813
 30
0
 11
2.73822592760324
 21
13.3219848632813
 31
0
 62
 30 
  0
LINE
  8
Stift_0
 10
2.73822592760324
 20
13.3219848632813
 30
0
 11
3.13107592760324
 21
13.1494848632813
 31
0
 62
 30 
  0
ARC
  8
Stift_0
 10
3.65797592760324
 20
12.8119848632813
 30
0
 40
0.625723469273768
 50
109.333953576284
 51
147.358853576284
 62
 30 
  0
ARC
  8
Stift_0
 10
3.51770092760325
 20
13.2369848632812
 30
0
 40
0.178445122363134
 50
10.9874449031545
 51
112.013444903154
 62
 30 
  0
ARC
  8
Stift_0
 10
2.89987592760325
 20
13.1344848632813
 30
0
 40
0.804663039556038
 50
333.970831306012
 51
369.767431306012
 62
 30 
  0
LINE
  8
Stift_0
 10
3.62292260626355
 20
12.7813756624582
 30
0
 11
4.26055092760325
 21
12.5344848632813
 31
0
 62
 30 
  0
LINE
  8
Stift_0
 10
4.26055092760325
 20
12.5344848632813
 30
0
 11
3.79402592760325
 21
14.1569848632813
 31
0
 62
 30 
  0
LINE
  8
Stift_0
 10
3.79402592760325
 20
14.1569848632813
 30
0
 11
2.64000092760325
 21
13.9344848632813
 31
0
 62
 30 
  0
LINE
  8
Stift_0
 10
9.90790092760325
 20
13.6169848632812
 30
0
 11
8.14002592760325
 21
13.1494848632813
 31
0
 62
 30 
  0
LINE
  8
Stift_0
 10
8.14002592760325
 20
13.1494848632813
 30
0
 11
8.45922592760325
 21
12.1419848632813
 31
0
 62
 30 
  0
LINE
  8
Stift_0
 10
8.45922592760325
 20
12.1419848632813
 30
0
 11
10.1534259276032
 21
12.8794848632813
 31
0
 62
 30 
  0
LINE
  8
Stift_0
 10
10.1534259276032
 20
12.8794848632813
 30
0
 11
9.90790092760325
 21
13.6169848632812
 31
0
 62
 30 
  0
LINE
  8
Stift_0
 10
13.7628259276032
 20
14.3519848632814
 30
0
 11
13.6891759276032
 21
13.5919848632813
 31
0
 62
 30 
  0
LINE
  8
Stift_0
 10
13.6891759276032
 20
13.5919848632813
 30
0
 11
14.4994259276032
 21
13.5669848632813
 31
0
 62
 30 
  0
LINE
  8
Stift_0
 10
14.4994259276032
 20
13.5669848632813
 30
0
 11
14.4748759276032
 21
13.7869848632813
 31
0
 62
 30 
  0
LINE
  8
Stift_0
 10
14.4748759276032
 20
13.7869848632813
 30
0
 11
13.7628259276032
 21
14.3519848632814
 31
0
 62
 30 
  0
LINE
  8
Stift_0
 10
10.3007509276032
 20
12.5844848632813
 30
0
 11
8.58200092760324
 21
11.8719848632813
 31
0
 62
 30 
  0
LINE
  8
Stift_0
 10
8.58200092760324
 20
11.8719848632813
 30
0
 11
8.80297592760325
 21
11.0619848632813
 31
0
 62
 30 
  0
LINE
  8
Stift_0
 10
8.80297592760325
 20
11.0619848632813
 30
0
 11
9.63780092760324
 21
10.9894848632813
 31
0
 62
 30 
  0
LINE
  8
Stift_0
 10
9.63780092760324
 20
10.9894848632813
 30
0
 11
10.6690759276032
 21
11.6994848632812
 31
0
 62
 30 
  0
LINE
  8
Stift_0
 10
10.6690759276032
 20
11.6994848632812
 30
0
 11
10.3007509276032
 21
12.5844848632813
 31
0
 62
 30 
  0
LINE
  8
Stift_0
 10
13.6646009276032
 20
12.1669848632813
 30
0
 11
12.7561259276032
 21
11.5044848632813
 31
0
 62
 30 
  0
LINE
  8
Stift_0
 10
12.7561259276032
 20
11.5044848632813
 30
0
 11
12.9280009276032
 21
11.1844848632813
 31
0
 62
 30 
  0
LINE
  8
Stift_0
 10
12.9280009276032
 20
11.1844848632813
 30
0
 11
13.5203009276032
 21
11.4169848632813
 31
0
 62
 30 
  0
ARC
  8
Stift_0
 10
12.7073009276032
 20
12.5594848632813
 30
0
 40
1.4022393697226
 50
305.435554852696
 51
327.161454852696
 62
 30 
  0
LINE
  8
Stift_0
 10
13.8854652290352
 20
11.7990875139755
 30
0
 11
13.6646009276032
 21
12.1669848632813
 31
0
 62
 30 
  0
LINE
  8
Stift_0
 10
11.2583509276032
 20
16.4644848632813
 30
0
 11
10.4480759276032
 21
15.7769848632813
 31
0
 62
 30 
  0
LINE
  8
Stift_0
 10
10.4480759276032
 20
15.7769848632813
 30
0
 11
10.6445009276032
 21
14.5969848632813
 31
0
 62
 30 
  0
LINE
  8
Stift_0
 10
10.6445009276032
 20
14.5969848632813
 30
0
 11
11.1601259276032
 21
14.3769848632813
 31
0
 62
 30 
  0
LINE
  8
Stift_0
 10
11.1601259276032
 20
14.3769848632813
 30
0
 11
11.7248759276032
 21
16.0719848632813
 31
0
 62
 30 
  0
LINE
  8
Stift_0
 10
11.7248759276032
 20
16.0719848632813
 30
0
 11
11.2583509276032
 21
16.4644848632813
 31
0
 62
 30 
  0
LINE
  8
Stift_0
 10
8.99942592760325
 20
18.0844848632813
 30
0
 11
8.45922592760325
 21
17.4944848632813
 31
0
 62
 30 
  0
LINE
  8
Stift_0
 10
8.45922592760325
 20
17.4944848632813
 30
0
 11
8.85210092760324
 21
15.8244848632812
 31
0
 62
 30 
  0
LINE
  8
Stift_0
 10
8.85210092760324
 20
15.8244848632812
 30
0
 11
9.83425092760324
 21
17.4719848632813
 31
0
 62
 30 
  0
LINE
  8
Stift_0
 10
9.83425092760324
 20
17.4719848632813
 30
0
 11
8.99942592760325
 21
18.0844848632813
 31
0
 62
 30 
  0
LINE
  8
Stift_0
 10
12.8583259276032
 20
15.1569848632813
 30
0
 11
12.3443509276032
 21
14.7269848632814
 31
0
 62
 30 
  0
LINE
  8
Stift_0
 10
12.3443509276032
 20
14.7269848632814
 30
0
 11
12.4106759276032
 21
13.8644848632813
 31
0
 62
 30 
  0
LINE
  8
Stift_0
 10
12.4106759276032
 20
13.8644848632813
 30
0
 11
13.3889009276032
 21
13.7144848632813
 31
0
 62
 30 
  0
LINE
  8
Stift_0
 10
13.3889009276032
 20
13.7144848632813
 30
0
 11
13.4884009276032
 21
14.5769848632813
 31
0
 62
 30 
  0
LINE
  8
Stift_0
 10
13.4884009276032
 20
14.5769848632813
 30
0
 11
12.8583259276032
 21
15.1569848632813
 31
0
 62
 30 
  0
LINE
  8
Stift_0
 10
7.69807592760325
 20
14.7944848632814
 30
0
 11
8.04182592760325
 21
13.4694848632813
 31
0
 62
 30 
  0
LINE
  8
Stift_0
 10
8.04182592760325
 20
13.4694848632813
 30
0
 11
9.80967592760324
 21
13.9094848632813
 31
0
 62
 30 
  0
LINE
  8
Stift_0
 10
9.80967592760324
 20
13.9094848632813
 30
0
 11
9.56415092760325
 21
14.6469848632813
 31
0
 62
 30 
  0
LINE
  8
Stift_0
 10
9.56415092760325
 20
14.6469848632813
 30
0
 11
9.12217592760324
 21
14.9669848632813
 31
0
 62
 30 
  0
LINE
  8
Stift_0
 10
9.12217592760324
 20
14.9669848632813
 30
0
 11
7.69807592760325
 21
14.7944848632814
 31
0
 62
 30 
  0
ARC
  8
Stift_0
 10
8.14102592760324
 20
15.9419848632813
 30
0
 40
0.37267747450035
 50
219.123301339036
 51
271.768301339036
 62
 30 
  0
ARC
  8
Stift_0
 10
8.32970092760325
 20
15.9469848632813
 30
0
 40
0.534754640525794
 50
157.606810672854
 51
206.685710672854
 62
 30 
  0
LINE
  8
Stift_0
 10
7.83527142628643
 20
16.1507052446659
 30
0
 11
7.45312592760324
 21
16.3494848632813
 31
0
 62
 30 
  0
LINE
  8
Stift_0
 10
7.45312592760324
 20
16.3494848632813
 30
0
 11
7.63552592760324
 21
15.1569848632813
 31
0
 62
 30 
  0
LINE
  8
Stift_0
 10
7.63552592760324
 20
15.1569848632813
 30
0
 11
8.64692592760325
 21
15.2894848632814
 31
0
 62
 30 
  0
LINE
  8
Stift_0
 10
8.64692592760325
 20
15.2894848632814
 30
0
 11
8.39822592760325
 21
15.5869848632813
 31
0
 62
 30 
  0
LINE
  8
Stift_0
 10
8.39822592760325
 20
15.5869848632813
 30
0
 11
8.15252592760324
 21
15.5694848632813
 31
0
 62
 30 
  0
LINE
  8
Stift_0
 10
7.86470092760324
 20
18.7619848632812
 30
0
 11
7.02727592760325
 21
17.8169848632813
 31
0
 62
 30 
  0
LINE
  8
Stift_0
 10
7.02727592760325
 20
17.8169848632813
 30
0
 11
7.15947592760325
 21
17.6794848632812
 31
0
 62
 30 
  0
LINE
  8
Stift_0
 10
7.15947592760325
 20
17.6794848632812
 30
0
 11
7.44217592760324
 21
17.7069848632814
 31
0
 62
 30 
  0
ARC
  8
Stift_0
 10
7.37932592760324
 20
17.4769848632814
 30
0
 40
0.238432637237456
 50
10.0313288881281
 51
74.7164288881281
 62
 30 
  0
ARC
  8
Stift_0
 10
6.96747592760325
 20
17.4094848632813
 30
0
 40
0.655765324343064
 50
336.540413617164
 51
369.570813617164
 62
 30 
  0
LINE
  8
Stift_0
 10
7.56903641430721
 20
17.1484232968888
 30
0
 11
7.74012592760324
 21
17.0394848632814
 31
0
 62
 30 
  0
LINE
  8
Stift_0
 10
7.74012592760324
 20
17.0394848632814
 30
0
 11
8.17215092760325
 21
17.5794848632813
 31
0
 62
 30 
  0
LINE
  8
Stift_0
 10
8.17215092760325
 20
17.5794848632813
 30
0
 11
7.86470092760324
 21
18.7619848632812
 31
0
 62
 30 
  0
LINE
  8
Stift_0
 10
8.21535092760324
 20
11.6819848632813
 30
0
 11
7.61050092760324
 21
11.3569848632814
 31
0
 62
 30 
  0
LINE
  8
Stift_0
 10
7.61050092760324
 20
11.3569848632814
 30
0
 11
8.40977592760325
 21
11.1844848632813
 31
0
 62
 30 
  0
LINE
  8
Stift_0
 10
8.40977592760325
 20
11.1844848632813
 30
0
 11
8.21535092760324
 21
11.6819848632813
 31
0
 62
 30 
  0
LINE
  8
Stift_0
 10
10.7643509276032
 20
11.4669848632813
 30
0
 11
10.1811259276032
 21
10.9269848632813
 31
0
 62
 30 
  0
LINE
  8
Stift_0
 10
10.1811259276032
 20
10.9269848632813
 30
0
 11
11.0667759276032
 21
10.9269848632813
 31
0
 62
 30 
  0
LINE
  8
Stift_0
 10
11.0667759276032
 20
10.9269848632813
 30
0
 11
10.7643509276032
 21
11.4669848632813
 31
0
 62
 30 
  0
LINE
  8
Stift_0
 10
10.1889009276032
 20
15.8694848632813
 30
0
 11
9.98992592760325
 21
17.1619848632813
 31
0
 62
 30 
  0
LINE
  8
Stift_0
 10
9.98992592760325
 20
17.1619848632813
 30
0
 11
9.54225092760325
 21
16.4844848632813
 31
0
 62
 30 
  0
ARC
  8
Stift_0
 10
9.38045092760325
 20
16.0719848632813
 30
0
 40
0.443097607757027
 50
16.9440817598932
 51
68.5827817598932
 62
 30 
  0
ARC
  8
Stift_0
 10
9.56872592760325
 20
16.1669848632813
 30
0
 40
0.238047784358065
 50
289.33652591866
 51
368.24452591866
 62
 30 
  0
ARC
  8
Stift_0
 10
9.49985092760325
 20
16.3469848632813
 30
0
 40
0.430733320367659
 50
241.282369632631
 51
290.053369632631
 62
 30 
  0
LINE
  8
Stift_0
 10
9.29288641881075
 20
15.9692324504827
 30
0
 11
9.07800092760325
 21
15.6544848632813
 31
0
 62
 30 
  0
LINE
  8
Stift_0
 10
9.07800092760325
 20
15.6544848632813
 30
0
 11
9.54225092760325
 21
15.3069848632813
 31
0
 62
 30 
  0
LINE
  8
Stift_0
 10
9.54225092760325
 20
15.3069848632813
 30
0
 11
10.1889009276032
 21
15.8694848632813
 31
0
 62
 30 
  0
LINE
  8
Stift_0
 10
8.28215092760325
 20
17.1794848632812
 30
0
 11
7.85105092760325
 21
16.8144848632813
 31
0
 62
 30 
  0
LINE
  8
Stift_0
 10
7.85105092760325
 20
16.8144848632813
 30
0
 11
8.44795092760324
 21
16.3169848632813
 31
0
 62
 30 
  0
LINE
  8
Stift_0
 10
8.44795092760324
 20
16.3169848632813
 30
0
 11
8.28215092760325
 21
17.1794848632812
 31
0
 62
 30 
  0
LINE
  8
Stift_0
 10
10.4376009276032
 20
16.1694848632814
 30
0
 11
10.9516009276032
 21
16.5819848632814
 31
0
 62
 30 
  0
LINE
  8
Stift_0
 10
10.9516009276032
 20
16.5819848632814
 30
0
 11
10.3381259276032
 21
17.0794848632813
 31
0
 62
 30 
  0
LINE
  8
Stift_0
 10
10.3381259276032
 20
17.0794848632813
 30
0
 11
10.4376009276032
 21
16.1694848632814
 31
0
 62
 30 
  0
LINE
  8
Stift_0
 10
11.3826759276032
 20
14.2944848632814
 30
0
 11
11.6811259276032
 21
14.4594848632813
 31
0
 62
 30 
  0
LINE
  8
Stift_0
 10
11.6811259276032
 20
14.4594848632813
 30
0
 11
12.0624759276032
 21
14.8244848632812
 31
0
 62
 30 
  0
LINE
  8
Stift_0
 10
12.0624759276032
 20
14.8244848632812
 30
0
 11
11.9961509276032
 21
15.4544848632813
 31
0
 62
 30 
  0
LINE
  8
Stift_0
 10
11.9961509276032
 20
15.4544848632813
 30
0
 11
11.8635259276032
 21
15.6719848632813
 31
0
 62
 30 
  0
LINE
  8
Stift_0
 10
11.8635259276032
 20
15.6719848632813
 30
0
 11
11.3826759276032
 21
14.2944848632814
 31
0
 62
 30 
  0
LINE
  8
Stift_0
 10
8.21582592760325
 20
18.6219848632813
 30
0
 11
8.39822592760325
 21
17.8269848632813
 31
0
 62
 30 
  0
LINE
  8
Stift_0
 10
8.39822592760325
 20
17.8269848632813
 30
0
 11
8.81272592760324
 21
18.2419848632812
 31
0
 62
 30 
  0
LINE
  8
Stift_0
 10
8.81272592760324
 20
18.2419848632812
 30
0
 11
8.21582592760325
 21
18.6219848632813
 31
0
 62
 30 
  0
LINE
  8
Stift_0
 10
12.4326009276032
 20
13.3319848632814
 30
0
 11
12.0127259276032
 21
13.2494848632813
 31
0
 62
 30 
  0
LINE
  8
Stift_0
 10
12.0127259276032
 20
13.2494848632813
 30
0
 11
12.2448509276032
 21
12.7519848632813
 31
0
 62
 30 
  0
LINE
  8
Stift_0
 10
12.2448509276032
 20
12.7519848632813
 30
0
 11
12.8583259276032
 21
13.1844848632813
 31
0
 62
 30 
  0
LINE
  8
Stift_0
 10
12.8583259276032
 20
13.1844848632813
 30
0
 11
12.4326009276032
 21
13.3319848632814
 31
0
 62
 30 
  0
LINE
  8
Stift_0
 10
12.1951259276032
 20
15.6219848632813
 30
0
 11
12.2780259276032
 21
15.1244848632813
 31
0
 62
 30 
  0
LINE
  8
Stift_0
 10
12.2780259276032
 20
15.1244848632813
 30
0
 11
12.5930509276032
 21
15.3069848632813
 31
0
 62
 30 
  0
LINE
  8
Stift_0
 10
12.5930509276032
 20
15.3069848632813
 30
0
 11
12.5267259276032
 21
15.5394848632814
 31
0
 62
 30 
  0
LINE
  8
Stift_0
 10
12.5267259276032
 20
15.5394848632814
 30
0
 11
12.1951259276032
 21
15.6219848632813
 31
0
 62
 30 
  0
LINE
  8
Stift_0
 10
12.1288009276032
 20
14.5769848632813
 30
0
 11
11.7474509276032
 21
14.2294848632813
 31
0
 62
 30 
  0
LINE
  8
Stift_0
 10
11.7474509276032
 20
14.2294848632813
 30
0
 11
11.9208759276032
 21
14.0419848632813
 31
0
 62
 30 
  0
LINE
  8
Stift_0
 10
11.9208759276032
 20
14.0419848632813
 30
0
 11
12.2117009276032
 21
14.0119848632812
 31
0
 62
 30 
  0
LINE
  8
Stift_0
 10
12.2117009276032
 20
14.0119848632812
 30
0
 11
12.1288009276032
 21
14.5769848632813
 31
0
 62
 30 
  0
LINE
  8
Stift_0
 10
16.6884009276032
 20
9.99948486328128
 30
0
 11
16.5723509276032
 21
9.1044848632813
 31
0
 62
 30 
  0
LINE
  8
Stift_0
 10
16.5723509276032
 20
9.1044848632813
 30
0
 11
17.1825759276032
 21
9.48198486328135
 31
0
 62
 30 
  0
LINE
  8
Stift_0
 10
17.1825759276032
 20
9.48198486328135
 30
0
 11
17.6869759276032
 21
10.0894848632813
 31
0
 62
 30 
  0
LINE
  8
Stift_0
 10
17.6869759276032
 20
10.0894848632813
 30
0
 11
16.6884009276032
 21
9.99948486328128
 31
0
 62
 30 
  0
LINE
  8
Stift_0
 10
9.79097592760325
 20
15.1569848632813
 30
0
 11
10.3878509276032
 21
14.8244848632812
 31
0
 62
 30 
  0
LINE
  8
Stift_0
 10
10.3878509276032
 20
14.8244848632812
 30
0
 11
10.2552259276032
 21
15.5869848632813
 31
0
 62
 30 
  0
LINE
  8
Stift_0
 10
10.2552259276032
 20
15.5869848632813
 30
0
 11
9.79097592760325
 21
15.1569848632813
 31
0
 62
 30 
  0
ARC
  8
Stift_0
 10
26.0574009276032
 20
15.8144848632813
 30
0
 40
0.53432369636766
 50
265.832143513587
 51
305.035943513587
 62
 30 
  0
ARC
  8
Stift_0
 10
26.0464009276032
 20
15.5694848632813
 30
0
 40
0.289252930928468
 50
205.540354637931
 51
264.478054637931
 62
 30 
  0
ARC
  8
Stift_0
 10
26.1291509276032
 20
15.5944848632813
 30
0
 40
0.374925061635097
 50
157.24560369589
 51
203.53490369589
 62
 30 
  0
LINE
  8
Stift_0
 10
25.7834057973758
 20
15.7394990238523
 30
0
 11
25.5621509276032
 21
15.8794848632813
 31
0
 62
 30 
  0
LINE
  8
Stift_0
 10
25.5621509276032
 20
15.8794848632813
 30
0
 11
24.8405009276032
 21
14.7169848632813
 31
0
 62
 30 
  0
LINE
  8
Stift_0
 10
24.8405009276032
 20
14.7169848632813
 30
0
 11
26.4244009276032
 21
14.7569848632813
 31
0
 62
 30 
  0
LINE
  8
Stift_0
 10
26.4244009276032
 20
14.7569848632813
 30
0
 11
26.4844009276032
 21
15.2569848632813
 31
0
 62
 30 
  0
LINE
  8
Stift_0
 10
26.4844009276032
 20
15.2569848632813
 30
0
 11
26.3641509276032
 21
15.3769848632813
 31
0
 62
 30 
  0
LINE
  8
Stift_0
 10
26.7571509276032
 20
15.0219848632813
 30
0
 11
26.7086509276032
 21
14.6019848632814
 31
0
 62
 30 
  0
ARC
  8
Stift_0
 10
26.6306509276032
 20
14.2494848632813
 30
0
 40
0.361026661065411
 50
26.9310333579957
 51
77.5228333579957
 62
 30 
  0
ARC
  8
Stift_0
 10
26.7509009276032
 20
14.2844848632813
 30
0
 40
0.239099353247757
 50
314.277758946893
 51
392.513458946893
 62
 30 
  0
ARC
  8
Stift_0
 10
26.6879009276032
 20
14.5194848632814
 30
0
 40
0.466746821871353
 50
247.177881558633
 51
299.512281558633
 62
 30 
  0
LINE
  8
Stift_0
 10
26.5068631688272
 20
14.0892780227682
 30
0
 11
26.3364009276032
 21
13.7594848632813
 31
0
 62
 30 
  0
LINE
  8
Stift_0
 10
26.3364009276032
 20
13.7594848632813
 30
0
 11
27.2831509276032
 21
13.3119848632813
 31
0
 62
 30 
  0
LINE
  8
Stift_0
 10
27.2831509276032
 20
13.3119848632813
 30
0
 11
27.2831509276032
 21
14.7319848632814
 31
0
 62
 30 
  0
LINE
  8
Stift_0
 10
27.2831509276032
 20
14.7319848632814
 30
0
 11
26.7571509276032
 21
15.0219848632813
 31
0
 62
 30 
  0
LINE
  8
Stift_0
 10
25.3079009276032
 20
13.1269848632813
 30
0
 11
25.0611509276032
 21
12.8719848632813
 31
0
 62
 30 
  0
LINE
  8
Stift_0
 10
25.0611509276032
 20
12.8719848632813
 30
0
 11
25.5221509276032
 21
12.6719848632813
 31
0
 62
 30 
  0
LINE
  8
Stift_0
 10
25.5221509276032
 20
12.6719848632813
 30
0
 11
25.5824009276032
 21
13.0719848632813
 31
0
 62
 30 
  0
ARC
  8
Stift_0
 10
25.3796509276032
 20
12.7719848632813
 30
0
 40
0.362087782864872
 50
55.9478613220994
 51
101.365661322099
 62
 30 
  0
LINE
  8
Stift_0
 10
28.5694009276032
 20
13.1919848632813
 30
0
 11
28.2899009276032
 21
13.2669848632813
 31
0
 62
 30 
  0
ARC
  8
Stift_0
 10
28.3341509276032
 20
13.5844848632813
 30
0
 40
0.320568732879568
 50
210.351890691406
 51
262.065790691406
 62
 30 
  0
ARC
  8
Stift_0
 10
28.7944009276032
 20
13.7319848632814
 30
0
 40
0.799234300507549
 50
169.648764559312
 51
202.782164559311
 62
 30 
  0
LINE
  8
Stift_0
 10
28.008174361321
 20
13.8755928490617
 30
0
 11
27.5269009276032
 21
14.2944848632814
 31
0
 62
 30 
  0
LINE
  8
Stift_0
 10
27.5269009276032
 20
14.2944848632814
 30
0
 11
27.4869009276032
 21
13.0119848632812
 31
0
 62
 30 
  0
LINE
  8
Stift_0
 10
27.4869009276032
 20
13.0119848632812
 30
0
 11
28.8501509276032
 21
12.0494848632812
 31
0
 62
 30 
  0
ARC
  8
Stift_0
 10
28.1921509276032
 20
12.3394848632813
 30
0
 40
0.719071623692682
 50
336.215497906895
 51
372.933597906895
 62
 30 
  0
LINE
  8
Stift_0
 10
28.8929797862193
 20
12.500428676244
 30
0
 11
28.5694009276032
 21
13.1919848632813
 31
0
 62
 30 
  0
LINE
  8
Stift_0
 10
24.6220759276032
 20
14.4569848632814
 30
0
 11
23.9191259276032
 21
13.3869848632812
 31
0
 62
 30 
  0
LINE
  8
Stift_0
 10
23.9191259276032
 20
13.3869848632812
 30
0
 11
24.8229259276032
 21
13.3869848632812
 31
0
 62
 30 
  0
ARC
  8
Stift_0
 10
25.4941509276032
 20
13.3994848632813
 30
0
 40
0.671341381582424
 50
146.446476930748
 51
181.066876930748
 62
 30 
  0
ARC
  8
Stift_0
 10
25.1096509276032
 20
13.6569848632813
 30
0
 40
0.208596676600257
 50
67.2240321749346
 51
147.016032174935
 62
 30 
  0
ARC
  8
Stift_0
 10
24.9541509276032
 20
13.3044848632812
 30
0
 40
0.593849473333103
 50
29.6038287480272
 51
66.5571287480271
 62
 30 
  0
ARC
  8
Stift_0
 10
24.8256509276032
 20
15.0669848632813
 30
0
 40
1.60442284457921
 50
293.697477024065
 51
314.879077024066
 62
 30 
  0
ARC
  8
Stift_0
 10
24.3533259276032
 20
15.1644848632814
 30
0
 40
2.02432778087655
 50
322.426562972618
 51
340.556962972618
 62
 30 
  0
LINE
  8
Stift_0
 10
26.2622121517049
 20
14.4906478296721
 30
0
 11
24.6220759276032
 21
14.4569848632814
 31
0
 62
 30 
  0
LINE
  8
Stift_0
 10
25.9831509276032
 20
13.5744848632812
 30
0
 11
25.9031509276032
 21
12.4119848632813
 31
0
 62
 30 
  0
LINE
  8
Stift_0
 10
25.9031509276032
 20
12.4119848632813
 30
0
 11
27.1574009276032
 21
11.6569848632813
 31
0
 62
 30 
  0
LINE
  8
Stift_0
 10
27.1574009276032
 20
11.6569848632813
 30
0
 11
27.2716509276032
 21
12.9369848632813
 31
0
 62
 30 
  0
LINE
  8
Stift_0
 10
27.2716509276032
 20
12.9369848632813
 30
0
 11
25.9831509276032
 21
13.5744848632812
 31
0
 62
 30 
  0
ARC
  8
Stift_0
 10
9.95010092760324
 20
52.8469848632813
 30
0
 40
2.16056972578995
 50
106.87831756868
 51
127.36691756868
 62
 30 
  0
ARC
  8
Stift_0
 10
11.0583259276032
 20
52.0294848632813
 30
0
 40
3.50406402155359
 50
133.668692774857
 51
148.497192774857
 62
 30 
  0
LINE
  8
Stift_0
 10
8.07070991193167
 20
53.860499666621
 30
0
 11
8.69715092760324
 21
53.4969848632813
 31
0
 62
 30 
  0
LINE
  8
Stift_0
 10
8.69715092760324
 20
53.4969848632813
 30
0
 11
9.75087592760325
 21
54.3869848632812
 31
0
 62
 30 
  0
LINE
  8
Stift_0
 10
9.75087592760325
 20
54.3869848632812
 30
0
 11
9.32280092760324
 21
54.9144848632814
 31
0
 62
 30 
  0
LINE
  8
Stift_0
 10
6.58970092760325
 20
48.2944848632814
 30
0
 11
4.51517592760325
 21
46.5169848632813
 31
0
 62
 30 
  0
LINE
  8
Stift_0
 10
4.51517592760325
 20
46.5169848632813
 30
0
 11
7.34705092760325
 21
47.3394848632813
 31
0
 62
 30 
  0
LINE
  8
Stift_0
 10
7.34705092760325
 20
47.3394848632813
 30
0
 11
7.51170092760325
 21
48.3619848632812
 31
0
 62
 30 
  0
LINE
  8
Stift_0
 10
7.51170092760325
 20
48.3619848632812
 30
0
 11
6.58970092760325
 21
48.2944848632814
 31
0
 62
 30 
  0
LINE
  8
Stift_0
 10
7.24827592760325
 20
51.7519848632813
 30
0
 11
5.70062592760324
 21
50.5344848632813
 31
0
 62
 30 
  0
LINE
  8
Stift_0
 10
5.70062592760324
 20
50.5344848632813
 30
0
 11
5.50305092760324
 21
50.1069848632814
 31
0
 62
 30 
  0
LINE
  8
Stift_0
 10
5.50305092760324
 20
50.1069848632814
 30
0
 11
7.24827592760325
 21
50.1394848632813
 31
0
 62
 30 
  0
LINE
  8
Stift_0
 10
7.24827592760325
 20
50.1394848632813
 30
0
 11
8.59835092760325
 21
50.9944848632813
 31
0
 62
 30 
  0
LINE
  8
Stift_0
 10
8.59835092760325
 20
50.9944848632813
 30
0
 11
7.24827592760325
 21
51.7519848632813
 31
0
 62
 30 
  0
LINE
  8
Stift_0
 10
4.48225092760325
 20
48.0644848632813
 30
0
 11
4.28467592760324
 21
47.0119848632812
 31
0
 62
 30 
  0
LINE
  8
Stift_0
 10
4.28467592760324
 20
47.0119848632812
 30
0
 11
4.97617592760325
 21
47.4719848632813
 31
0
 62
 30 
  0
LINE
  8
Stift_0
 10
4.97617592760325
 20
47.4719848632813
 30
0
 11
5.60182592760324
 21
48.0319848632813
 31
0
 62
 30 
  0
LINE
  8
Stift_0
 10
5.60182592760324
 20
48.0319848632813
 30
0
 11
4.48225092760325
 21
48.0644848632813
 31
0
 62
 30 
  0
LINE
  8
Stift_0
 10
7.47877592760324
 20
49.9094848632813
 30
0
 11
6.34375092760324
 21
49.2519848632813
 31
0
 62
 30 
  0
LINE
  8
Stift_0
 10
6.34375092760324
 20
49.2519848632813
 30
0
 11
5.50305092760324
 21
48.5919848632813
 31
0
 62
 30 
  0
LINE
  8
Stift_0
 10
5.50305092760324
 20
48.5919848632813
 30
0
 11
6.49090092760325
 21
48.5919848632813
 31
0
 62
 30 
  0
LINE
  8
Stift_0
 10
6.49090092760325
 20
48.5919848632813
 30
0
 11
7.90685092760324
 21
49.8419848632813
 31
0
 62
 30 
  0
LINE
  8
Stift_0
 10
7.90685092760324
 20
49.8419848632813
 30
0
 11
7.47877592760324
 21
49.9094848632813
 31
0
 62
 30 
  0
LINE
  8
Stift_0
 10
9.91552592760325
 20
54.1894848632813
 30
0
 11
8.89472592760325
 21
53.3344848632813
 31
0
 62
 30 
  0
LINE
  8
Stift_0
 10
8.89472592760325
 20
53.3344848632813
 30
0
 11
9.88260092760325
 21
52.5769848632813
 31
0
 62
 30 
  0
LINE
  8
Stift_0
 10
9.88260092760325
 20
52.5769848632813
 30
0
 11
10.6399509276032
 21
53.3994848632813
 31
0
 62
 30 
  0
LINE
  8
Stift_0
 10
10.6399509276032
 20
53.3994848632813
 30
0
 11
9.91552592760325
 21
54.1894848632813
 31
0
 62
 30 
  0
LINE
  8
Stift_0
 10
8.63130092760325
 20
53.0369848632813
 30
0
 11
7.64342592760325
 21
52.0819848632814
 31
0
 62
 30 
  0
LINE
  8
Stift_0
 10
7.64342592760325
 20
52.0819848632814
 30
0
 11
8.96057592760324
 21
51.3569848632814
 31
0
 62
 30 
  0
LINE
  8
Stift_0
 10
8.96057592760324
 20
51.3569848632814
 30
0
 11
9.65207592760325
 21
52.2794848632813
 31
0
 62
 30 
  0
LINE
  8
Stift_0
 10
9.65207592760325
 20
52.2794848632813
 30
0
 11
8.63130092760325
 21
53.0369848632813
 31
0
 62
 30 
  0
LINE
  8
Stift_0
 10
4.08337592760325
 20
44.6069848632814
 30
0
 11
4.08337592760325
 21
44.2469848632813
 31
0
 62
 30 
  0
LINE
  8
Stift_0
 10
4.08337592760325
 20
44.2469848632813
 30
0
 11
7.30642592760324
 21
45.5169848632813
 31
0
 62
 30 
  0
LINE
  8
Stift_0
 10
7.30642592760324
 20
45.5169848632813
 30
0
 11
7.27385092760325
 21
45.8094848632813
 31
0
 62
 30 
  0
LINE
  8
Stift_0
 10
7.27385092760325
 20
45.8094848632813
 30
0
 11
4.08337592760325
 21
44.6069848632814
 31
0
 62
 30 
  0
ARC
  8
Stift_0
 10
42.8359009276032
 20
33.7044848632813
 30
0
 40
38.1396267877076
 50
159.783262685441
 51
165.568982685441
 62
 30 
  0
ARC
  8
Stift_0
 10
46.6826509276032
 20
34.1369848632812
 30
0
 40
41.7799356240952
 50
167.45841381938
 51
172.90290381938
 62
 30 
  0
LINE
  8
Stift_0
 10
5.22282477736745
 20
39.2989453770552
 30
0
 11
5.64605092760324
 21
38.4519848632813
 31
0
 62
 30 
  0
LINE
  8
Stift_0
 10
5.64605092760324
 20
38.4519848632813
 30
0
 11
6.11760092760325
 21
41.5194848632814
 31
0
 62
 30 
  0
ARC
  8
Stift_0
 10
29.1681509276032
 20
38.8569848632814
 30
0
 40
23.2038092035015
 50
167.664345152247
 51
173.411135152247
 62
 30 
  0
ARC
  8
Stift_0
 10
33.8784009276032
 20
37.1119848632812
 30
0
 40
28.1867659587499
 50
159.926082412755
 51
166.244502412755
 62
 30 
  0
LINE
  8
Stift_0
 10
7.40396417562196
 20
46.7865894484148
 30
0
 11
7.04597592760324
 21
46.8844848632813
 31
0
 62
 30 
  0
LINE
  8
Stift_0
 10
10.7338259276032
 20
55.4944848632813
 30
0
 11
10.3507509276032
 21
55.3219848632813
 31
0
 62
 30 
  0
LINE
  8
Stift_0
 10
10.3507509276032
 20
55.3219848632813
 30
0
 11
10.5806009276032
 21
54.8619848632812
 31
0
 62
 30 
  0
LINE
  8
Stift_0
 10
10.5806009276032
 20
54.8619848632812
 30
0
 11
10.9828259276032
 21
55.1294848632813
 31
0
 62
 30 
  0
LINE
  8
Stift_0
 10
10.9828259276032
 20
55.1294848632813
 30
0
 11
10.7338259276032
 21
55.4944848632813
 31
0
 62
 30 
  0
LINE
  8
Stift_0
 10
5.19027592760325
 20
46.4294848632812
 30
0
 11
4.18105092760324
 21
42.7494848632813
 31
0
 62
 30 
  0
LINE
  8
Stift_0
 10
4.18105092760324
 20
42.7494848632813
 30
0
 11
4.44147592760325
 21
42.1969848632813
 31
0
 62
 30 
  0
LINE
  8
Stift_0
 10
4.44147592760325
 20
42.1969848632813
 30
0
 11
5.51582592760325
 21
46.4294848632812
 31
0
 62
 30 
  0
LINE
  8
Stift_0
 10
5.51582592760325
 20
46.4294848632812
 30
0
 11
5.19027592760325
 21
46.4294848632812
 31
0
 62
 30 
  0
LINE
  8
Stift_0
 10
6.68802592760325
 20
52.1069848632814
 30
0
 11
6.34305092760325
 21
51.6594848632813
 31
0
 62
 30 
  0
LINE
  8
Stift_0
 10
6.34305092760325
 20
51.6594848632813
 30
0
 11
6.52192592760325
 21
51.4544848632813
 31
0
 62
 30 
  0
LINE
  8
Stift_0
 10
6.52192592760325
 20
51.4544848632813
 30
0
 11
6.99465092760324
 21
51.9544848632813
 31
0
 62
 30 
  0
LINE
  8
Stift_0
 10
6.99465092760324
 20
51.9544848632813
 30
0
 11
6.68802592760325
 21
52.1069848632814
 31
0
 62
 30 
  0
LINE
  8
Stift_0
 10
7.71015092760324
 20
49.1694848632814
 30
0
 11
7.30130092760325
 21
48.7594848632813
 31
0
 62
 30 
  0
ARC
  8
Stift_0
 10
7.55707592760325
 20
49.3394848632813
 30
0
 40
0.633893406358688
 50
246.202934221607
 51
280.738434221607
 62
 30 
  0
ARC
  8
Stift_0
 10
7.42407592760325
 20
49.0144848632813
 30
0
 40
0.389534384594541
 50
310.138919339845
 51
358.267619339845
 62
 30 
  0
LINE
  8
Stift_0
 10
7.8134322695247
 20
49.0027087948802
 30
0
 11
7.71015092760324
 21
49.1694848632814
 31
0
 62
 30 
  0
LINE
  8
Stift_0
 10
7.91822592760325
 20
53.6344848632813
 30
0
 11
7.63092592760325
 21
53.3469848632813
 31
0
 62
 30 
  0
LINE
  8
Stift_0
 10
7.63092592760325
 20
53.3469848632813
 30
0
 11
7.65055092760324
 21
53.0744848632812
 31
0
 62
 30 
  0
ARC
  8
Stift_0
 10
7.41440092760325
 20
53.1319848632813
 30
0
 40
0.243049526845884
 50
291.263382737238
 51
346.315382737239
 62
 30 
  0
LINE
  8
Stift_0
 10
7.50254422878359
 20
52.9054813733369
 30
0
 11
7.22870092760325
 21
52.8894848632813
 31
0
 62
 30 
  0
LINE
  8
Stift_0
 10
7.22870092760325
 20
52.8894848632813
 30
0
 11
6.96055092760325
 21
52.4869848632812
 31
0
 62
 30 
  0
LINE
  8
Stift_0
 10
6.96055092760325
 20
52.4869848632812
 30
0
 11
7.34362592760325
 21
52.2169848632813
 31
0
 62
 30 
  0
LINE
  8
Stift_0
 10
7.34362592760325
 20
52.2169848632813
 30
0
 11
8.45110092760325
 21
53.2894848632814
 31
0
 62
 30 
  0
LINE
  8
Stift_0
 10
8.45110092760325
 20
53.2894848632814
 30
0
 11
7.91822592760325
 21
53.6344848632813
 31
0
 62
 30 
  0
LINE
  8
Stift_0
 10
5.23960092760325
 20
49.7769848632813
 30
0
 11
5.09092592760325
 21
49.3869848632812
 31
0
 62
 30 
  0
ARC
  8
Stift_0
 10
5.12077592760325
 20
49.3169848632813
 30
0
 40
0.0760987680583427
 50
12.1857849702757
 51
113.094784970276
 62
 30 
  0
ARC
  8
Stift_0
 10
4.99285092760325
 20
49.2644848632813
 30
0
 40
0.213611526631954
 50
319.480056220259
 51
378.721656220258
 62
 30 
  0
ARC
  8
Stift_0
 10
5.03867592760325
 20
49.2819848632813
 30
0
 40
0.194964511477642
 50
238.06237372473
 51
306.71557372473
 62
 30 
  0
LINE
  8
Stift_0
 10
4.93554053109866
 20
49.1165332065245
 30
0
 11
4.87740092760324
 21
48.7569848632813
 31
0
 62
 30 
  0
LINE
  8
Stift_0
 10
4.87740092760324
 20
48.7569848632813
 30
0
 11
6.62262592760325
 21
49.7769848632813
 31
0
 62
 30 
  0
LINE
  8
Stift_0
 10
6.62262592760325
 20
49.7769848632813
 30
0
 11
5.23960092760325
 21
49.7769848632813
 31
0
 62
 30 
  0
LINE
  8
Stift_0
 10
11.1893509276032
 20
55.6444848632814
 30
0
 11
11.2851509276032
 21
55.2544848632813
 31
0
 62
 30 
  0
LINE
  8
Stift_0
 10
11.2851509276032
 20
55.2544848632813
 30
0
 11
11.7803509276032
 21
55.3919848632813
 31
0
 62
 30 
  0
LINE
  8
Stift_0
 10
11.7803509276032
 20
55.3919848632813
 30
0
 11
11.6325259276032
 21
55.7794848632813
 31
0
 62
 30 
  0
LINE
  8
Stift_0
 10
11.6325259276032
 20
55.7794848632813
 30
0
 11
11.1893509276032
 21
55.6444848632814
 31
0
 62
 30 
  0
LINE
  8
Stift_0
 10
12.4561009276032
 20
55.9494848632812
 30
0
 11
11.9964009276032
 21
55.8919848632813
 31
0
 62
 30 
  0
LINE
  8
Stift_0
 10
11.9964009276032
 20
55.8919848632813
 30
0
 11
12.1320509276032
 21
55.4944848632813
 31
0
 62
 30 
  0
LINE
  8
Stift_0
 10
12.1320509276032
 20
55.4944848632813
 30
0
 11
12.6284759276032
 21
55.5069848632813
 31
0
 62
 30 
  0
LINE
  8
Stift_0
 10
12.6284759276032
 20
55.5069848632813
 30
0
 11
12.4561009276032
 21
55.9494848632812
 31
0
 62
 30 
  0
LINE
  8
Stift_0
 10
13.2812759276032
 20
56.1069848632814
 30
0
 11
12.7832759276032
 21
56.0869848632813
 31
0
 62
 30 
  0
LINE
  8
Stift_0
 10
12.7832759276032
 20
56.0869848632813
 30
0
 11
12.9173509276032
 21
55.5894848632813
 31
0
 62
 30 
  0
LINE
  8
Stift_0
 10
12.9173509276032
 20
55.5894848632813
 30
0
 11
13.3195759276032
 21
55.5894848632813
 31
0
 62
 30 
  0
LINE
  8
Stift_0
 10
13.3195759276032
 20
55.5894848632813
 30
0
 11
13.2812759276032
 21
56.1069848632814
 31
0
 62
 30 
  0
LINE
  8
Stift_0
 10
14.8327259276032
 20
57.1594848632813
 30
0
 11
14.3921759276032
 21
57.1594848632813
 31
0
 62
 30 
  0
LINE
  8
Stift_0
 10
14.3921759276032
 20
57.1594848632813
 30
0
 11
14.3347259276032
 21
56.5469848632813
 31
0
 62
 30 
  0
LINE
  8
Stift_0
 10
14.3347259276032
 20
56.5469848632813
 30
0
 11
14.9093259276032
 21
56.4894848632813
 31
0
 62
 30 
  0
LINE
  8
Stift_0
 10
14.9093259276032
 20
56.4894848632813
 30
0
 11
14.8327259276032
 21
57.1594848632813
 31
0
 62
 30 
  0
LINE
  8
Stift_0
 10
11.9213509276032
 20
56.9294848632812
 30
0
 11
11.4616759276032
 21
56.7969848632813
 31
0
 62
 30 
  0
LINE
  8
Stift_0
 10
11.4616759276032
 20
56.7969848632813
 30
0
 11
11.7872759276032
 21
56.2019848632813
 31
0
 62
 30 
  0
LINE
  8
Stift_0
 10
11.7872759276032
 20
56.2019848632813
 30
0
 11
12.2469759276032
 21
56.3169848632813
 31
0
 62
 30 
  0
LINE
  8
Stift_0
 10
12.2469759276032
 20
56.3169848632813
 30
0
 11
11.9213509276032
 21
56.9294848632812
 31
0
 62
 30 
  0
LINE
  8
Stift_0
 10
10.3411759276032
 20
56.1544848632813
 30
0
 11
9.91980092760325
 21
55.8094848632813
 31
0
 62
 30 
  0
LINE
  8
Stift_0
 10
9.91980092760325
 20
55.8094848632813
 30
0
 11
10.0155759276032
 21
55.5419848632813
 31
0
 62
 30 
  0
LINE
  8
Stift_0
 10
10.0155759276032
 20
55.5419848632813
 30
0
 11
10.5518759276032
 21
55.6944848632813
 31
0
 62
 30 
  0
LINE
  8
Stift_0
 10
10.5518759276032
 20
55.6944848632813
 30
0
 11
10.3411759276032
 21
56.1544848632813
 31
0
 62
 30 
  0
LINE
  8
Stift_0
 10
11.0881759276032
 20
56.5744848632812
 30
0
 11
10.6476259276032
 21
56.3269848632813
 31
0
 62
 30 
  0
LINE
  8
Stift_0
 10
10.6476259276032
 20
56.3269848632813
 30
0
 11
10.9349509276032
 21
55.8469848632813
 31
0
 62
 30 
  0
LINE
  8
Stift_0
 10
10.9349509276032
 20
55.8469848632813
 30
0
 11
11.3754759276032
 21
56.0969848632813
 31
0
 62
 30 
  0
LINE
  8
Stift_0
 10
11.3754759276032
 20
56.0969848632813
 30
0
 11
11.0881759276032
 21
56.5744848632812
 31
0
 62
 30 
  0
LINE
  8
Stift_0
 10
13.1280509276032
 20
57.1794848632812
 30
0
 11
12.3044259276032
 21
57.0819848632814
 31
0
 62
 30 
  0
LINE
  8
Stift_0
 10
12.3044259276032
 20
57.0819848632814
 30
0
 11
12.5917259276032
 21
56.3369848632813
 31
0
 62
 30 
  0
LINE
  8
Stift_0
 10
12.5917259276032
 20
56.3369848632813
 30
0
 11
13.2046509276032
 21
56.4119848632813
 31
0
 62
 30 
  0
LINE
  8
Stift_0
 10
13.2046509276032
 20
56.4119848632813
 30
0
 11
13.1280509276032
 21
57.1794848632812
 31
0
 62
 30 
  0
LINE
  8
Stift_0
 10
15.6754759276032
 20
57.0244848632813
 30
0
 11
15.2158009276032
 21
57.0444848632814
 31
0
 62
 30 
  0
LINE
  8
Stift_0
 10
15.2158009276032
 20
57.0444848632814
 30
0
 11
15.1775009276032
 21
56.4319848632813
 31
0
 62
 30 
  0
LINE
  8
Stift_0
 10
15.1775009276032
 20
56.4319848632813
 30
0
 11
15.7138009276032
 21
56.4119848632813
 31
0
 62
 30 
  0
LINE
  8
Stift_0
 10
15.7138009276032
 20
56.4119848632813
 30
0
 11
15.6754759276032
 21
57.0244848632813
 31
0
 62
 30 
  0
LINE
  8
Stift_0
 10
13.9708009276032
 20
57.1794848632812
 30
0
 11
13.5494259276032
 21
57.1794848632812
 31
0
 62
 30 
  0
LINE
  8
Stift_0
 10
13.5494259276032
 20
57.1794848632812
 30
0
 11
13.5398509276032
 21
56.4794848632813
 31
0
 62
 30 
  0
LINE
  8
Stift_0
 10
13.5398509276032
 20
56.4794848632813
 30
0
 11
13.9899509276032
 21
56.4694848632813
 31
0
 62
 30 
  0
LINE
  8
Stift_0
 10
13.9899509276032
 20
56.4694848632813
 30
0
 11
13.9708009276032
 21
57.1794848632812
 31
0
 62
 30 
  0
LINE
  8
Stift_0
 10
13.9899509276032
 20
56.1644848632814
 30
0
 11
13.6643509276032
 21
56.1819848632813
 31
0
 62
 30 
  0
LINE
  8
Stift_0
 10
13.6643509276032
 20
56.1819848632813
 30
0
 11
13.6643509276032
 21
55.5694848632813
 31
0
 62
 30 
  0
LINE
  8
Stift_0
 10
13.6643509276032
 20
55.5694848632813
 30
0
 11
14.0474259276032
 21
55.5694848632813
 31
0
 62
 30 
  0
LINE
  8
Stift_0
 10
14.0474259276032
 20
55.5694848632813
 30
0
 11
13.9899509276032
 21
56.1644848632814
 31
0
 62
 30 
  0
LINE
  8
Stift_0
 10
10.5039759276032
 20
54.4969848632813
 30
0
 11
10.1975259276032
 21
54.3244848632812
 31
0
 62
 30 
  0
LINE
  8
Stift_0
 10
10.1975259276032
 20
54.3244848632812
 30
0
 11
10.7721259276032
 21
53.6544848632813
 31
0
 62
 30 
  0
LINE
  8
Stift_0
 10
10.7721259276032
 20
53.6544848632813
 30
0
 11
11.0402759276032
 21
53.8469848632813
 31
0
 62
 30 
  0
LINE
  8
Stift_0
 10
11.0402759276032
 20
53.8469848632813
 30
0
 11
10.5039759276032
 21
54.4969848632813
 31
0
 62
 30 
  0
LINE
  8
Stift_0
 10
11.2126759276032
 20
54.8044848632812
 30
0
 11
10.8487509276032
 21
54.6894848632813
 31
0
 62
 30 
  0
LINE
  8
Stift_0
 10
10.8487509276032
 20
54.6894848632813
 30
0
 11
11.1743509276032
 21
54.0769848632813
 31
0
 62
 30 
  0
LINE
  8
Stift_0
 10
11.1743509276032
 20
54.0769848632813
 30
0
 11
11.5766009276032
 21
54.2669848632813
 31
0
 62
 30 
  0
LINE
  8
Stift_0
 10
11.5766009276032
 20
54.2669848632813
 30
0
 11
11.2126759276032
 21
54.8044848632812
 31
0
 62
 30 
  0
LINE
  8
Stift_0
 10
15.5605759276032
 20
56.1244848632813
 30
0
 11
15.1008759276032
 21
56.1644848632814
 31
0
 62
 30 
  0
LINE
  8
Stift_0
 10
15.1008759276032
 20
56.1644848632814
 30
0
 11
14.9859509276032
 21
55.1094848632813
 31
0
 62
 30 
  0
LINE
  8
Stift_0
 10
14.9859509276032
 20
55.1094848632813
 30
0
 11
15.4839509276032
 21
55.0919848632813
 31
0
 62
 30 
  0
LINE
  8
Stift_0
 10
15.4839509276032
 20
55.0919848632813
 30
0
 11
15.5605759276032
 21
56.1244848632813
 31
0
 62
 30 
  0
LINE
  8
Stift_0
 10
9.97725092760325
 20
55.1969848632813
 30
0
 11
9.63250092760325
 21
54.9869848632812
 31
0
 62
 30 
  0
LINE
  8
Stift_0
 10
9.63250092760325
 20
54.9869848632812
 30
0
 11
9.91980092760325
 21
54.5644848632813
 31
0
 62
 30 
  0
LINE
  8
Stift_0
 10
9.91980092760325
 20
54.5644848632813
 30
0
 11
10.2454009276032
 21
54.8319848632814
 31
0
 62
 30 
  0
LINE
  8
Stift_0
 10
10.2454009276032
 20
54.8319848632814
 30
0
 11
9.97725092760325
 21
55.1969848632813
 31
0
 62
 30 
  0
LINE
  8
Stift_0
 10
13.9516509276032
 20
55.2644848632813
 30
0
 11
13.2238009276032
 21
55.2819848632813
 31
0
 62
 30 
  0
LINE
  8
Stift_0
 10
13.2238009276032
 20
55.2819848632813
 30
0
 11
13.2238009276032
 21
54.9769848632814
 31
0
 62
 30 
  0
LINE
  8
Stift_0
 10
13.2238009276032
 20
54.9769848632814
 30
0
 11
13.9420759276032
 21
54.9869848632812
 31
0
 62
 30 
  0
LINE
  8
Stift_0
 10
13.9420759276032
 20
54.9869848632812
 30
0
 11
13.9516509276032
 21
55.2644848632813
 31
0
 62
 30 
  0
LINE
  8
Stift_0
 10
11.9692509276032
 20
55.1194848632813
 30
0
 11
11.5861759276032
 21
54.9469848632813
 31
0
 62
 30 
  0
LINE
  8
Stift_0
 10
11.5861759276032
 20
54.9469848632813
 30
0
 11
11.8351759276032
 21
54.4869848632812
 31
0
 62
 30 
  0
LINE
  8
Stift_0
 10
11.8351759276032
 20
54.4869848632812
 30
0
 11
12.2374009276032
 21
54.6419848632813
 31
0
 62
 30 
  0
LINE
  8
Stift_0
 10
12.2374009276032
 20
54.6419848632813
 30
0
 11
11.9692509276032
 21
55.1194848632813
 31
0
 62
 30 
  0
LINE
  8
Stift_0
 10
12.8599009276032
 20
55.2244848632813
 30
0
 11
12.4002009276032
 21
55.1869848632813
 31
0
 62
 30 
  0
LINE
  8
Stift_0
 10
12.4002009276032
 20
55.1869848632813
 30
0
 11
12.5151259276032
 21
54.7644848632813
 31
0
 62
 30 
  0
LINE
  8
Stift_0
 10
12.5151259276032
 20
54.7644848632813
 30
0
 11
12.9748009276032
 21
54.8619848632812
 31
0
 62
 30 
  0
LINE
  8
Stift_0
 10
12.9748009276032
 20
54.8619848632812
 30
0
 11
12.8599009276032
 21
55.2244848632813
 31
0
 62
 30 
  0
LINE
  8
Stift_0
 10
14.7752509276032
 20
56.1069848632814
 30
0
 11
14.3155759276032
 21
56.1244848632813
 31
0
 62
 30 
  0
LINE
  8
Stift_0
 10
14.3155759276032
 20
56.1244848632813
 30
0
 11
14.3347259276032
 21
55.5519848632813
 31
0
 62
 30 
  0
LINE
  8
Stift_0
 10
14.3347259276032
 20
55.5519848632813
 30
0
 11
14.7944259276032
 21
55.4944848632813
 31
0
 62
 30 
  0
LINE
  8
Stift_0
 10
14.7944259276032
 20
55.4944848632813
 30
0
 11
14.7752509276032
 21
56.1069848632814
 31
0
 62
 30 
  0
LINE
  8
Stift_0
 10
8.21797592760324
 20
34.4894848632813
 30
0
 11
7.59942592760325
 21
34.5469848632813
 31
0
 62
 30 
  0
LINE
  8
Stift_0
 10
7.59942592760325
 20
34.5469848632813
 30
0
 11
8.38075092760324
 21
33.1794848632812
 31
0
 62
 30 
  0
LINE
  8
Stift_0
 10
8.38075092760324
 20
33.1794848632812
 30
0
 11
9.27425092760325
 21
37.4469848632813
 31
0
 62
 30 
  0
LINE
  8
Stift_0
 10
9.27425092760325
 20
37.4469848632813
 30
0
 11
9.90140092760325
 21
37.3369848632813
 31
0
 62
 30 
  0
LINE
  8
Stift_0
 10
9.90140092760325
 20
37.3369848632813
 30
0
 11
9.45510092760325
 21
38.3869848632812
 31
0
 62
 30 
  0
LINE
  8
Stift_0
 10
9.45510092760325
 20
38.3869848632812
 30
0
 11
9.34415092760324
 21
38.6219848632813
 31
0
 62
 30 
  0
LINE
  8
Stift_0
 10
9.34415092760324
 20
38.6219848632813
 30
0
 11
9.22222592760325
 21
38.9119848632813
 31
0
 62
 30 
  0
LINE
  8
Stift_0
 10
9.22222592760325
 20
38.9119848632813
 30
0
 11
8.21797592760324
 21
34.4894848632813
 31
0
 62
 30 
  0
LINE
  8
Stift_0
 10
7.92497592760325
 20
40.1469848632813
 30
0
 11
5.45072592760325
 21
39.5594848632813
 31
0
 62
 30 
  0
LINE
  8
Stift_0
 10
5.45072592760325
 20
39.5594848632813
 30
0
 11
5.45072592760325
 21
39.2344848632813
 31
0
 62
 30 
  0
LINE
  8
Stift_0
 10
5.45072592760325
 20
39.2344848632813
 30
0
 11
7.82730092760325
 21
39.6894848632813
 31
0
 62
 30 
  0
LINE
  8
Stift_0
 10
7.82730092760325
 20
39.6894848632813
 30
0
 11
7.92497592760325
 21
40.1469848632813
 31
0
 62
 30 
  0
LINE
  8
Stift_0
 10
7.56685092760325
 20
43.9869848632812
 30
0
 11
4.27870092760325
 21
42.9444848632813
 31
0
 62
 30 
  0
LINE
  8
Stift_0
 10
4.27870092760325
 20
42.9444848632813
 30
0
 11
4.44147592760325
 21
42.5219848632813
 31
0
 62
 30 
  0
LINE
  8
Stift_0
 10
4.44147592760325
 20
42.5219848632813
 30
0
 11
7.69707592760325
 21
43.5644848632813
 31
0
 62
 30 
  0
LINE
  8
Stift_0
 10
7.69707592760325
 20
43.5644848632813
 30
0
 11
7.56685092760325
 21
43.9869848632812
 31
0
 62
 30 
  0
LINE
  8
Stift_0
 10
8.02265092760324
 20
42.1969848632813
 30
0
 11
4.60427592760325
 21
41.1544848632813
 31
0
 62
 30 
  0
LINE
  8
Stift_0
 10
4.60427592760325
 20
41.1544848632813
 30
0
 11
4.76705092760325
 21
40.6994848632812
 31
0
 62
 30 
  0
LINE
  8
Stift_0
 10
4.76705092760325
 20
40.6994848632812
 30
0
 11
8.21797592760324
 21
41.7419848632812
 31
0
 62
 30 
  0
LINE
  8
Stift_0
 10
8.21797592760324
 20
41.7419848632812
 30
0
 11
8.02265092760324
 21
42.1969848632813
 31
0
 62
 30 
  0
LINE
  8
Stift_0
 10
7.63652592760324
 20
39.5769848632813
 30
0
 11
7.50612592760324
 21
39.1519848632813
 31
0
 62
 30 
  0
LINE
  8
Stift_0
 10
7.50612592760324
 20
39.1519848632813
 30
0
 11
9.23415092760325
 21
38.5319848632813
 31
0
 62
 30 
  0
LINE
  8
Stift_0
 10
9.23415092760325
 20
38.5319848632813
 30
0
 11
9.23415092760325
 21
38.8594848632813
 31
0
 62
 30 
  0
LINE
  8
Stift_0
 10
9.23415092760325
 20
38.8594848632813
 30
0
 11
7.63652592760324
 21
39.5769848632813
 31
0
 62
 30 
  0
LINE
  8
Stift_0
 10
7.01705092760325
 20
37.2294848632813
 30
0
 11
7.01705092760325
 21
36.7394848632813
 31
0
 62
 30 
  0
LINE
  8
Stift_0
 10
7.01705092760325
 20
36.7394848632813
 30
0
 11
8.81030092760325
 21
36.2169848632813
 31
0
 62
 30 
  0
LINE
  8
Stift_0
 10
8.81030092760325
 20
36.2169848632813
 30
0
 11
8.87550092760325
 21
36.7069848632814
 31
0
 62
 30 
  0
LINE
  8
Stift_0
 10
8.87550092760325
 20
36.7069848632814
 30
0
 11
7.01705092760325
 21
37.2294848632813
 31
0
 62
 30 
  0
LINE
  8
Stift_0
 10
10.9621759276032
 20
34.6844848632813
 30
0
 11
10.2448759276032
 21
36.2819848632813
 31
0
 62
 30 
  0
LINE
  8
Stift_0
 10
10.2448759276032
 20
36.2819848632813
 30
0
 11
8.97330092760325
 21
32.2394848632813
 31
0
 62
 30 
  0
LINE
  8
Stift_0
 10
8.97330092760325
 20
32.2394848632813
 30
0
 11
9.20155092760325
 21
31.8494848632813
 31
0
 62
 30 
  0
LINE
  8
Stift_0
 10
9.20155092760325
 20
31.8494848632813
 30
0
 11
10.2774759276032
 21
34.9469848632813
 31
0
 62
 30 
  0
LINE
  8
Stift_0
 10
10.2774759276032
 20
34.9469848632813
 30
0
 11
10.9621759276032
 21
34.6844848632813
 31
0
 62
 30 
  0
ARC
  8
Stift_0
 10
-18.4112490723968
 20
45.2369848632812
 30
0
 40
26.4894464315626
 50
347.959108685036
 51
353.834468685036
 62
 30 
  0
ARC
  8
Stift_0
 10
-44.5003490723968
 20
52.1569848632813
 30
0
 40
53.4645674878119
 50
342.8612599921
 51
346.5386799921
 62
 30 
  0
LINE
  8
Stift_0
 10
6.5900699604489
 20
36.4016981408178
 30
0
 11
7.01340092760324
 21
35.7844848632813
 31
0
 62
 30 
  0
LINE
  8
Stift_0
 10
7.01340092760324
 20
35.7844848632813
 30
0
 11
8.28310092760325
 21
41.5119848632812
 31
0
 62
 30 
  0
LINE
  8
Stift_0
 10
8.28310092760325
 20
41.5119848632812
 30
0
 11
7.92497592760325
 21
42.3919848632813
 31
0
 62
 30 
  0
LINE
  8
Stift_0
 10
9.65800092760325
 20
33.6744848632812
 30
0
 11
9.49497592760325
 21
33.1844848632813
 31
0
 62
 30 
  0
LINE
  8
Stift_0
 10
9.49497592760325
 20
33.1844848632813
 30
0
 11
11.0926009276032
 21
32.4369848632813
 31
0
 62
 30 
  0
LINE
  8
Stift_0
 10
11.0926009276032
 20
32.4369848632813
 30
0
 11
11.1578009276032
 21
32.8594848632813
 31
0
 62
 30 
  0
LINE
  8
Stift_0
 10
11.1578009276032
 20
32.8594848632813
 30
0
 11
9.65800092760325
 21
33.6744848632812
 31
0
 62
 30 
  0
LINE
  8
Stift_0
 10
11.7829009276032
 20
29.4569848632814
 30
0
 11
11.5102259276032
 21
29.0194848632814
 31
0
 62
 30 
  0
LINE
  8
Stift_0
 10
11.5102259276032
 20
29.0194848632814
 30
0
 11
14.7005759276032
 21
27.2744848632813
 31
0
 62
 30 
  0
LINE
  8
Stift_0
 10
14.7005759276032
 20
27.2744848632813
 30
0
 11
14.4006259276032
 21
27.9569848632814
 31
0
 62
 30 
  0
LINE
  8
Stift_0
 10
14.4006259276032
 20
27.9569848632814
 30
0
 11
11.7829009276032
 21
29.4569848632814
 31
0
 62
 30 
  0
LINE
  8
Stift_0
 10
8.22342592760324
 20
33.7069848632814
 30
0
 11
8.45165092760324
 21
33.0544848632812
 31
0
 62
 30 
  0
LINE
  8
Stift_0
 10
8.45165092760324
 20
33.0544848632812
 30
0
 11
9.36457592760325
 21
32.8594848632813
 31
0
 62
 30 
  0
LINE
  8
Stift_0
 10
9.36457592760325
 20
32.8594848632813
 30
0
 11
9.56020092760325
 21
33.2844848632813
 31
0
 62
 30 
  0
LINE
  8
Stift_0
 10
9.56020092760325
 20
33.2844848632813
 30
0
 11
8.22342592760324
 21
33.7069848632814
 31
0
 62
 30 
  0
LINE
  8
Stift_0
 10
8.81030092760325
 20
35.8269848632813
 30
0
 11
8.67987592760324
 21
35.4669848632813
 31
0
 62
 30 
  0
LINE
  8
Stift_0
 10
8.67987592760324
 20
35.4669848632813
 30
0
 11
10.1470759276032
 21
35.0119848632812
 31
0
 62
 30 
  0
LINE
  8
Stift_0
 10
10.1470759276032
 20
35.0119848632812
 30
0
 11
10.2774759276032
 21
35.3369848632813
 31
0
 62
 30 
  0
LINE
  8
Stift_0
 10
10.2774759276032
 20
35.3369848632813
 30
0
 11
8.81030092760325
 21
35.8269848632813
 31
0
 62
 30 
  0
LINE
  8
Stift_0
 10
11.0273759276032
 20
32.1419848632813
 30
0
 11
10.8723509276032
 21
31.7469848632813
 31
0
 62
 30 
  0
LINE
  8
Stift_0
 10
10.8723509276032
 20
31.7469848632813
 30
0
 11
12.0899759276032
 21
30.9644848632813
 31
0
 62
 30 
  0
LINE
  8
Stift_0
 10
12.0899759276032
 20
30.9644848632813
 30
0
 11
11.0811009276032
 21
28.5819848632814
 31
0
 62
 30 
  0
LINE
  8
Stift_0
 10
11.0811009276032
 20
28.5819848632814
 30
0
 11
11.3768009276032
 21
28.1469848632813
 31
0
 62
 30 
  0
LINE
  8
Stift_0
 10
11.3768009276032
 20
28.1469848632813
 30
0
 11
11.7768759276032
 21
28.8244848632812
 31
0
 62
 30 
  0
LINE
  8
Stift_0
 10
11.7768759276032
 20
28.8244848632812
 30
0
 11
11.8812509276032
 21
29.4344848632813
 31
0
 62
 30 
  0
LINE
  8
Stift_0
 10
11.8812509276032
 20
29.4344848632813
 30
0
 11
12.7162009276032
 21
31.1719848632813
 31
0
 62
 30 
  0
LINE
  8
Stift_0
 10
12.7162009276032
 20
31.1719848632813
 30
0
 11
12.4726759276032
 21
31.6419848632813
 31
0
 62
 30 
  0
LINE
  8
Stift_0
 10
12.4726759276032
 20
31.6419848632813
 30
0
 11
12.2639259276032
 21
31.3819848632813
 31
0
 62
 30 
  0
LINE
  8
Stift_0
 10
12.2639259276032
 20
31.3819848632813
 30
0
 11
11.0273759276032
 21
32.1419848632813
 31
0
 62
 30 
  0
LINE
  8
Stift_0
 10
14.6460259276032
 20
24.3569848632814
 30
0
 11
14.5097009276032
 21
24.1394848632813
 31
0
 62
 30 
  0
LINE
  8
Stift_0
 10
14.5097009276032
 20
24.1394848632813
 30
0
 11
13.0917509276032
 21
24.8219848632813
 31
0
 62
 30 
  0
LINE
  8
Stift_0
 10
13.0917509276032
 20
24.8219848632813
 30
0
 11
13.3917009276032
 21
24.2469848632813
 31
0
 62
 30 
  0
LINE
  8
Stift_0
 10
13.3917009276032
 20
24.2469848632813
 30
0
 11
14.2097509276032
 21
23.8119848632813
 31
0
 62
 30 
  0
LINE
  8
Stift_0
 10
14.2097509276032
 20
23.8119848632813
 30
0
 11
14.7551009276032
 21
23.7569848632813
 31
0
 62
 30 
  0
LINE
  8
Stift_0
 10
14.7551009276032
 20
23.7569848632813
 30
0
 11
15.7640259276032
 21
23.1569848632813
 31
0
 62
 30 
  0
LINE
  8
Stift_0
 10
15.7640259276032
 20
23.1569848632813
 30
0
 11
16.2821009276032
 21
22.7744848632813
 31
0
 62
 30 
  0
LINE
  8
Stift_0
 10
16.2821009276032
 20
22.7744848632813
 30
0
 11
17.0728759276032
 21
22.3669848632812
 31
0
 62
 30 
  0
LINE
  8
Stift_0
 10
17.0728759276032
 20
22.3669848632812
 30
0
 11
16.8820009276032
 21
23.0494848632812
 31
0
 62
 30 
  0
LINE
  8
Stift_0
 10
16.8820009276032
 20
23.0494848632812
 30
0
 11
14.6460259276032
 21
24.3569848632814
 31
0
 62
 30 
  0
LINE
  8
Stift_0
 10
10.3922259276032
 20
30.6019848632814
 30
0
 11
10.2831509276032
 21
30.2194848632813
 31
0
 62
 30 
  0
LINE
  8
Stift_0
 10
10.2831509276032
 20
30.2194848632813
 30
0
 11
11.6738259276032
 21
29.4844848632813
 31
0
 62
 30 
  0
LINE
  8
Stift_0
 10
11.6738259276032
 20
29.4844848632813
 30
0
 11
11.8101509276032
 21
29.8644848632813
 31
0
 62
 30 
  0
LINE
  8
Stift_0
 10
11.8101509276032
 20
29.8644848632813
 30
0
 11
10.3922259276032
 21
30.6019848632814
 31
0
 62
 30 
  0
LINE
  8
Stift_0
 10
5.87590092760325
 20
37.9144848632814
 30
0
 11
6.10412592760325
 21
37.4244848632812
 31
0
 62
 30 
  0
LINE
  8
Stift_0
 10
6.10412592760325
 20
37.4244848632812
 30
0
 11
7.21267592760324
 21
37.5219848632813
 31
0
 62
 30 
  0
LINE
  8
Stift_0
 10
7.21267592760324
 20
37.5219848632813
 30
0
 11
7.34310092760324
 21
38.1419848632813
 31
0
 62
 30 
  0
LINE
  8
Stift_0
 10
7.34310092760324
 20
38.1419848632813
 30
0
 11
5.87590092760325
 21
37.9144848632814
 31
0
 62
 30 
  0
LINE
  8
Stift_0
 10
11.2556259276032
 20
33.8044848632812
 30
0
 11
10.0492509276032
 21
30.4144848632814
 31
0
 62
 30 
  0
LINE
  8
Stift_0
 10
10.0492509276032
 20
30.4144848632814
 30
0
 11
10.3427009276032
 21
29.9569848632814
 31
0
 62
 30 
  0
LINE
  8
Stift_0
 10
10.3427009276032
 20
29.9569848632814
 30
0
 11
11.6468759276032
 21
33.3169848632813
 31
0
 62
 30 
  0
LINE
  8
Stift_0
 10
11.6468759276032
 20
33.3169848632813
 30
0
 11
11.2556259276032
 21
33.8044848632812
 31
0
 62
 30 
  0
LINE
  8
Stift_0
 10
9.54692592760325
 20
31.3919848632813
 30
0
 11
9.73780092760325
 21
30.8744848632813
 31
0
 62
 30 
  0
LINE
  8
Stift_0
 10
9.73780092760325
 20
30.8744848632813
 30
0
 11
10.4740259276032
 21
30.5744848632812
 31
0
 62
 30 
  0
LINE
  8
Stift_0
 10
10.4740259276032
 20
30.5744848632812
 30
0
 11
10.5285759276032
 21
31.0644848632813
 31
0
 62
 30 
  0
LINE
  8
Stift_0
 10
10.5285759276032
 20
31.0644848632813
 30
0
 11
9.54692592760325
 21
31.3919848632813
 31
0
 62
 30 
  0
LINE
  8
Stift_0
 10
15.3550009276032
 20
25.9394848632813
 30
0
 11
13.8552509276032
 21
23.0744848632812
 31
0
 62
 30 
  0
LINE
  8
Stift_0
 10
13.8552509276032
 20
23.0744848632812
 30
0
 11
14.1006759276032
 21
22.6394848632813
 31
0
 62
 30 
  0
LINE
  8
Stift_0
 10
14.1006759276032
 20
22.6394848632813
 30
0
 11
15.7094759276032
 21
25.4194848632814
 31
0
 62
 30 
  0
LINE
  8
Stift_0
 10
15.7094759276032
 20
25.4194848632814
 30
0
 11
15.3550009276032
 21
25.9394848632813
 31
0
 62
 30 
  0
LINE
  8
Stift_0
 10
17.2910259276032
 20
21.9569848632814
 30
0
 11
16.6366009276032
 21
20.8394848632813
 31
0
 62
 30 
  0
LINE
  8
Stift_0
 10
16.6366009276032
 20
20.8394848632813
 30
0
 11
16.1185009276032
 21
20.4294848632812
 31
0
 62
 30 
  0
LINE
  8
Stift_0
 10
16.1185009276032
 20
20.4294848632812
 30
0
 11
15.2459259276032
 21
18.8219848632813
 31
0
 62
 30 
  0
LINE
  8
Stift_0
 10
15.2459259276032
 20
18.8219848632813
 30
0
 11
15.6549509276032
 21
18.6319848632813
 31
0
 62
 30 
  0
LINE
  8
Stift_0
 10
15.6549509276032
 20
18.6319848632813
 30
0
 11
17.5091759276032
 21
21.6019848632814
 31
0
 62
 30 
  0
LINE
  8
Stift_0
 10
17.5091759276032
 20
21.6019848632814
 30
0
 11
17.2910259276032
 21
21.9569848632814
 31
0
 62
 30 
  0
LINE
  8
Stift_0
 10
14.4824259276032
 20
27.8194848632813
 30
0
 11
12.9281509276032
 21
25.0669848632813
 31
0
 62
 30 
  0
LINE
  8
Stift_0
 10
12.9281509276032
 20
25.0669848632813
 30
0
 11
13.2826259276032
 21
24.6294848632813
 31
0
 62
 30 
  0
LINE
  8
Stift_0
 10
13.2826259276032
 20
24.6294848632813
 30
0
 11
14.7278259276032
 21
27.3844848632813
 31
0
 62
 30 
  0
LINE
  8
Stift_0
 10
14.7278259276032
 20
27.3844848632813
 30
0
 11
14.4824259276032
 21
27.8194848632813
 31
0
 62
 30 
  0
LINE
  8
Stift_0
 10
14.1006759276032
 20
26.1844848632813
 30
0
 11
13.5280509276032
 21
26.2669848632813
 31
0
 62
 30 
  0
LINE
  8
Stift_0
 10
13.5280509276032
 20
26.2669848632813
 30
0
 11
12.0010259276032
 21
26.9744848632813
 31
0
 62
 30 
  0
LINE
  8
Stift_0
 10
12.0010259276032
 20
26.9744848632813
 30
0
 11
12.2464509276032
 21
26.4019848632813
 31
0
 62
 30 
  0
LINE
  8
Stift_0
 10
12.2464509276032
 20
26.4019848632813
 30
0
 11
13.3644259276032
 21
25.8294848632813
 31
0
 62
 30 
  0
LINE
  8
Stift_0
 10
13.3644259276032
 20
25.8294848632813
 30
0
 11
13.9643259276032
 21
25.8569848632814
 31
0
 62
 30 
  0
LINE
  8
Stift_0
 10
13.9643259276032
 20
25.8569848632814
 30
0
 11
15.1368509276032
 21
25.1469848632813
 31
0
 62
 30 
  0
LINE
  8
Stift_0
 10
15.1368509276032
 20
25.1469848632813
 30
0
 11
15.3277259276032
 21
25.6119848632812
 31
0
 62
 30 
  0
LINE
  8
Stift_0
 10
15.3277259276032
 20
25.6119848632812
 30
0
 11
14.1006759276032
 21
26.1844848632813
 31
0
 62
 30 
  0
LINE
  8
Stift_0
 10
13.4735009276032
 20
29.5369848632813
 30
0
 11
12.9008759276032
 21
28.6119848632812
 31
0
 62
 30 
  0
LINE
  8
Stift_0
 10
12.9008759276032
 20
28.6119848632812
 30
0
 11
13.3371759276032
 21
28.3119848632813
 31
0
 62
 30 
  0
LINE
  8
Stift_0
 10
13.3371759276032
 20
28.3119848632813
 30
0
 11
13.7461759276032
 21
29.2644848632813
 31
0
 62
 30 
  0
LINE
  8
Stift_0
 10
13.7461759276032
 20
29.2644848632813
 30
0
 11
13.4735009276032
 21
29.5369848632813
 31
0
 62
 30 
  0
LINE
  8
Stift_0
 10
15.9276259276032
 20
23.4019848632813
 30
0
 11
14.8914509276032
 21
21.5494848632812
 31
0
 62
 30 
  0
LINE
  8
Stift_0
 10
14.8914509276032
 20
21.5494848632812
 30
0
 11
15.3277259276032
 21
21.3569848632814
 31
0
 62
 30 
  0
LINE
  8
Stift_0
 10
15.3277259276032
 20
21.3569848632814
 30
0
 11
16.3093759276032
 21
23.1019848632814
 31
0
 62
 30 
  0
LINE
  8
Stift_0
 10
16.3093759276032
 20
23.1019848632814
 30
0
 11
15.9276259276032
 21
23.4019848632813
 31
0
 62
 30 
  0
LINE
  8
Stift_0
 10
14.3460759276032
 20
22.1219848632813
 30
0
 11
14.4824259276032
 21
21.5494848632812
 31
0
 62
 30 
  0
LINE
  8
Stift_0
 10
14.4824259276032
 20
21.5494848632812
 30
0
 11
18.3544759276032
 21
19.2044848632813
 31
0
 62
 30 
  0
LINE
  8
Stift_0
 10
18.3544759276032
 20
19.2044848632813
 30
0
 11
18.1363259276032
 21
19.9119848632813
 31
0
 62
 30 
  0
LINE
  8
Stift_0
 10
18.1363259276032
 20
19.9119848632813
 30
0
 11
14.3460759276032
 21
22.1219848632813
 31
0
 62
 30 
  0
LINE
  8
Stift_0
 10
15.7912759276032
 20
19.1494848632813
 30
0
 11
15.4368009276032
 21
18.6844848632813
 31
0
 62
 30 
  0
LINE
  8
Stift_0
 10
15.4368009276032
 20
18.6844848632813
 30
0
 11
17.1819509276032
 21
17.6494848632813
 31
0
 62
 30 
  0
LINE
  8
Stift_0
 10
17.1819509276032
 20
17.6494848632813
 30
0
 11
18.4635509276032
 21
16.6394848632813
 31
0
 62
 30 
  0
LINE
  8
Stift_0
 10
18.4635509276032
 20
16.6394848632813
 30
0
 11
19.0089009276032
 21
16.5594848632813
 31
0
 62
 30 
  0
LINE
  8
Stift_0
 10
19.0089009276032
 20
16.5594848632813
 30
0
 11
18.7907509276032
 21
17.5669848632813
 31
0
 62
 30 
  0
LINE
  8
Stift_0
 10
18.7907509276032
 20
17.5669848632813
 30
0
 11
18.5998759276032
 21
17.2394848632813
 31
0
 62
 30 
  0
LINE
  8
Stift_0
 10
18.5998759276032
 20
17.2394848632813
 30
0
 11
15.7912759276032
 21
19.1494848632813
 31
0
 62
 30 
  0
LINE
  8
Stift_0
 10
15.5731509276032
 20
14.7044848632813
 30
0
 11
15.4095259276032
 21
14.1319848632813
 31
0
 62
 30 
  0
LINE
  8
Stift_0
 10
15.4095259276032
 20
14.1319848632813
 30
0
 11
17.1546759276032
 21
12.6319848632813
 31
0
 62
 30 
  0
LINE
  8
Stift_0
 10
17.1546759276032
 20
12.6319848632813
 30
0
 11
17.9727259276032
 21
12.5769848632813
 31
0
 62
 30 
  0
LINE
  8
Stift_0
 10
17.9727259276032
 20
12.5769848632813
 30
0
 11
15.5731509276032
 21
14.7044848632813
 31
0
 62
 30 
  0
LINE
  8
Stift_0
 10
15.9549009276032
 20
16.5869848632813
 30
0
 11
15.7912759276032
 21
16.1769848632813
 31
0
 62
 30 
  0
LINE
  8
Stift_0
 10
15.7912759276032
 20
16.1769848632813
 30
0
 11
18.9543759276032
 21
13.3144848632813
 31
0
 62
 30 
  0
LINE
  8
Stift_0
 10
18.9543759276032
 20
13.3144848632813
 30
0
 11
19.1407759276032
 21
13.6694848632814
 31
0
 62
 30 
  0
ARC
  8
Stift_0
 10
18.7468259276032
 20
13.7044848632813
 30
0
 40
0.395501709857233
 50
354.922957467109
 51
396.68305746711
 62
 30 
  0
LINE
  8
Stift_0
 10
19.0639994448383
 20
13.9407528519398
 30
0
 11
15.9549009276032
 21
16.5869848632813
 31
0
 62
 30 
  0
LINE
  8
Stift_0
 10
18.2454009276032
 20
14.2144848632813
 30
0
 11
16.2003009276032
 21
13.8044848632812
 31
0
 62
 30 
  0
LINE
  8
Stift_0
 10
16.2003009276032
 20
13.8044848632812
 30
0
 11
16.6638509276032
 21
13.5044848632813
 31
0
 62
 30 
  0
LINE
  8
Stift_0
 10
16.6638509276032
 20
13.5044848632813
 30
0
 11
18.4589759276032
 21
13.8594848632813
 31
0
 62
 30 
  0
LINE
  8
Stift_0
 10
18.4589759276032
 20
13.8594848632813
 30
0
 11
18.2454009276032
 21
14.2144848632813
 31
0
 62
 30 
  0
LINE
  8
Stift_0
 10
17.3455509276032
 20
15.3044848632812
 30
0
 11
15.4913259276032
 21
14.9494848632812
 31
0
 62
 30 
  0
LINE
  8
Stift_0
 10
15.4913259276032
 20
14.9494848632812
 30
0
 11
15.4913259276032
 21
14.6219848632813
 31
0
 62
 30 
  0
LINE
  8
Stift_0
 10
15.4913259276032
 20
14.6219848632813
 30
0
 11
17.3682509276032
 21
14.9494848632812
 31
0
 62
 30 
  0
LINE
  8
Stift_0
 10
17.3682509276032
 20
14.9494848632812
 30
0
 11
17.3455509276032
 21
15.3044848632812
 31
0
 62
 30 
  0
LINE
  8
Stift_0
 10
18.5998759276032
 20
16.8594848632813
 30
0
 11
16.9910759276032
 21
15.0594848632813
 31
0
 62
 30 
  0
LINE
  8
Stift_0
 10
16.9910759276032
 20
15.0594848632813
 30
0
 11
17.4819009276032
 21
14.7044848632813
 31
0
 62
 30 
  0
LINE
  8
Stift_0
 10
17.4819009276032
 20
14.7044848632813
 30
0
 11
19.0089009276032
 21
16.5594848632813
 31
0
 62
 30 
  0
LINE
  8
Stift_0
 10
19.0089009276032
 20
16.5594848632813
 30
0
 11
18.5998759276032
 21
16.8594848632813
 31
0
 62
 30 
  0
LINE
  8
Stift_0
 10
17.5637009276032
 20
12.3869848632812
 30
0
 11
14.7551009276032
 21
12.1944848632813
 31
0
 62
 30 
  0
LINE
  8
Stift_0
 10
14.7551009276032
 20
12.1944848632813
 30
0
 11
15.0005009276032
 21
12.6594848632813
 31
0
 62
 30 
  0
LINE
  8
Stift_0
 10
15.0005009276032
 20
12.6594848632813
 30
0
 11
16.6911259276032
 21
12.8769848632813
 31
0
 62
 30 
  0
LINE
  8
Stift_0
 10
16.6911259276032
 20
12.8769848632813
 30
0
 11
17.9181759276032
 21
12.7419848632812
 31
0
 62
 30 
  0
LINE
  8
Stift_0
 10
17.9181759276032
 20
12.7419848632812
 30
0
 11
18.9271009276032
 21
13.0144848632813
 31
0
 62
 30 
  0
LINE
  8
Stift_0
 10
18.9271009276032
 20
13.0144848632813
 30
0
 11
18.8998259276032
 21
12.5769848632813
 31
0
 62
 30 
  0
LINE
  8
Stift_0
 10
18.8998259276032
 20
12.5769848632813
 30
0
 11
17.5637009276032
 21
12.3869848632812
 31
0
 62
 30 
  0
LINE
  8
Stift_0
 10
16.2275759276032
 20
16.5594848632813
 30
0
 11
17.1001509276032
 21
17.6494848632813
 31
0
 62
 30 
  0
LINE
  8
Stift_0
 10
17.1001509276032
 20
17.6494848632813
 30
0
 11
18.2181259276032
 21
19.4769848632814
 31
0
 62
 30 
  0
LINE
  8
Stift_0
 10
18.2181259276032
 20
19.4769848632814
 30
0
 11
17.8636509276032
 21
19.6944848632813
 31
0
 62
 30 
  0
LINE
  8
Stift_0
 10
17.8636509276032
 20
19.6944848632813
 30
0
 11
15.6276759276032
 21
16.6119848632812
 31
0
 62
 30 
  0
LINE
  8
Stift_0
 10
15.6276759276032
 20
16.6119848632812
 30
0
 11
15.5731509276032
 21
16.2869848632813
 31
0
 62
 30 
  0
LINE
  8
Stift_0
 10
15.5731509276032
 20
16.2869848632813
 30
0
 11
15.9276259276032
 21
16.0119848632812
 31
0
 62
 30 
  0
LINE
  8
Stift_0
 10
15.9276259276032
 20
16.0119848632812
 30
0
 11
16.2275759276032
 21
16.5594848632813
 31
0
 62
 30 
  0
ARC
  8
Stift_0
 10
5.80672592760325
 20
12.2519848632813
 30
0
 40
8.67385394216435
 50
343.02883472657
 51
352.21451472657
 62
 30 
  0
ARC
  8
Stift_0
 10
6.44522592760325
 20
12.5394848632814
 30
0
 40
8.16013021251962
 50
330.219836598637
 51
339.787756598637
 62
 30 
  0
LINE
  8
Stift_0
 10
13.527708623083
 20
8.48656444048675
 30
0
 11
13.9916009276032
 21
8.43198486328129
 31
0
 62
 30 
  0
LINE
  8
Stift_0
 10
13.9916009276032
 20
8.43198486328129
 30
0
 11
14.5128259276032
 21
9.58698486328126
 31
0
 62
 30 
  0
LINE
  8
Stift_0
 10
14.5128259276032
 20
9.58698486328126
 30
0
 11
14.8096259276032
 21
10.8594848632813
 31
0
 62
 30 
  0
LINE
  8
Stift_0
 10
14.8096259276032
 20
10.8594848632813
 30
0
 11
14.4006259276032
 21
11.0769848632813
 31
0
 62
 30 
  0
LINE
  8
Stift_0
 10
15.7094759276032
 20
9.03198486328131
 30
0
 11
14.5915009276032
 21
9.57698486328127
 31
0
 62
 30 
  0
LINE
  8
Stift_0
 10
14.5915009276032
 20
9.57698486328127
 30
0
 11
13.2008259276032
 21
10.7219848632813
 31
0
 62
 30 
  0
LINE
  8
Stift_0
 10
13.2008259276032
 20
10.7219848632813
 30
0
 11
12.8463509276032
 21
10.6419848632813
 31
0
 62
 30 
  0
LINE
  8
Stift_0
 10
12.8463509276032
 20
10.6419848632813
 30
0
 11
15.2459259276032
 21
8.56948486328133
 31
0
 62
 30 
  0
LINE
  8
Stift_0
 10
15.2459259276032
 20
8.56948486328133
 30
0
 11
16.1730259276032
 21
8.84198486328125
 31
0
 62
 30 
  0
LINE
  8
Stift_0
 10
16.1730259276032
 20
8.84198486328125
 30
0
 11
15.7094759276032
 21
9.03198486328131
 31
0
 62
 30 
  0
LINE
  8
Stift_0
 10
17.4273509276032
 20
12.6044848632813
 30
0
 11
16.9638009276032
 21
12.4944848632813
 31
0
 62
 30 
  0
LINE
  8
Stift_0
 10
16.9638009276032
 20
12.4944848632813
 30
0
 11
17.8220009276032
 21
10.7569848632813
 31
0
 62
 30 
  0
LINE
  8
Stift_0
 10
17.8220009276032
 20
10.7569848632813
 30
0
 11
18.1363259276032
 21
11.0494848632812
 31
0
 62
 30 
  0
LINE
  8
Stift_0
 10
18.1363259276032
 20
11.0494848632812
 30
0
 11
17.4273509276032
 21
12.6044848632813
 31
0
 62
 30 
  0
LINE
  8
Stift_0
 10
15.1914009276032
 20
12.4419848632813
 30
0
 11
14.7823759276032
 21
12.1944848632813
 31
0
 62
 30 
  0
LINE
  8
Stift_0
 10
14.7823759276032
 20
12.1944848632813
 30
0
 11
15.5186009276032
 21
10.6694848632814
 31
0
 62
 30 
  0
LINE
  8
Stift_0
 10
15.5186009276032
 20
10.6694848632814
 30
0
 11
16.0367009276032
 21
10.6144848632813
 31
0
 62
 30 
  0
LINE
  8
Stift_0
 10
16.0367009276032
 20
10.6144848632813
 30
0
 11
15.1914009276032
 21
12.4419848632813
 31
0
 62
 30 
  0
LINE
  8
Stift_0
 10
7.82905092760325
 20
10.8044848632812
 30
0
 11
6.11115092760325
 21
11.2694848632814
 31
0
 62
 30 
  0
ARC
  8
Stift_0
 10
5.94907592760325
 20
11.1369848632812
 30
0
 40
0.209343152801851
 50
39.2667799100221
 51
106.850979910022
 62
 30 
  0
ARC
  8
Stift_0
 10
5.96370092760325
 20
11.1319848632813
 30
0
 40
0.21872820960433
 50
110.139628439291
 51
184.153128439291
 62
 30 
  0
ARC
  8
Stift_0
 10
6.14560092760324
 20
11.1869848632813
 30
0
 40
0.406277608881372
 50
190.041736688649
 51
240.998236688649
 62
 30 
  0
LINE
  8
Stift_0
 10
5.94862269867157
 20
10.8316525219368
 30
0
 11
7.76800092760325
 21
9.92448486328124
 31
0
 62
 30 
  0
LINE
  8
Stift_0
 10
7.76800092760325
 20
9.92448486328124
 30
0
 11
9.76507592760325
 21
9.19698486328127
 31
0
 62
 30 
  0
LINE
  8
Stift_0
 10
9.76507592760325
 20
9.19698486328127
 30
0
 11
9.24697592760324
 21
9.74198486328123
 31
0
 62
 30 
  0
LINE
  8
Stift_0
 10
9.24697592760324
 20
9.74198486328123
 30
0
 11
9.71052592760324
 21
10.4769848632814
 31
0
 62
 30 
  0
LINE
  8
Stift_0
 10
9.71052592760324
 20
10.4769848632814
 30
0
 11
9.02882592760325
 21
10.4769848632814
 31
0
 62
 30 
  0
LINE
  8
Stift_0
 10
9.02882592760325
 20
10.4769848632814
 30
0
 11
8.53800092760325
 21
9.93198486328129
 31
0
 62
 30 
  0
LINE
  8
Stift_0
 10
8.53800092760325
 20
9.93198486328129
 30
0
 11
7.82905092760325
 21
10.8044848632812
 31
0
 62
 30 
  0
LINE
  8
Stift_0
 10
16.0367009276032
 20
10.4769848632814
 30
0
 11
15.6822009276032
 21
8.92448486328124
 31
0
 62
 30 
  0
LINE
  8
Stift_0
 10
15.6822009276032
 20
8.92448486328124
 30
0
 11
16.1457759276032
 21
8.86948486328129
 31
0
 62
 30 
  0
LINE
  8
Stift_0
 10
16.1457759276032
 20
8.86948486328129
 30
0
 11
16.3911759276032
 21
10.4494848632812
 31
0
 62
 30 
  0
LINE
  8
Stift_0
 10
16.3911759276032
 20
10.4494848632812
 30
0
 11
16.0367009276032
 21
10.4769848632814
 31
0
 62
 30 
  0
ARC
  8
Stift_0
 10
16.3772759276032
 20
15.6069848632814
 30
0
 40
4.83835931392301
 50
263.039443907505
 51
276.980043907505
 62
 30 
  0
LINE
  8
Stift_0
 10
15.7909344192709
 20
10.8042851551763
 30
0
 11
14.2097509276032
 21
11.3219848632813
 31
0
 62
 30 
  0
LINE
  8
Stift_0
 10
14.2097509276032
 20
11.3219848632813
 30
0
 11
14.1006759276032
 21
11.1594848632813
 31
0
 62
 30 
  0
LINE
  8
Stift_0
 10
14.1006759276032
 20
11.1594848632813
 30
0
 11
14.7551009276032
 21
10.6694848632814
 31
0
 62
 30 
  0
LINE
  8
Stift_0
 10
14.7551009276032
 20
10.6694848632814
 30
0
 11
15.9549009276032
 21
10.3144848632813
 31
0
 62
 30 
  0
LINE
  8
Stift_0
 10
15.9549009276032
 20
10.3144848632813
 30
0
 11
16.4457259276032
 21
10.2869848632813
 31
0
 62
 30 
  0
LINE
  8
Stift_0
 10
16.4457259276032
 20
10.2869848632813
 30
0
 11
17.8909259276032
 21
10.4244848632812
 31
0
 62
 30 
  0
ARC
  8
Stift_0
 10
17.3560759276032
 20
11.2544848632813
 30
0
 40
0.987402918012718
 50
302.797634443614
 51
333.414034443614
 62
 30 
  0
ARC
  8
Stift_0
 10
17.7540009276032
 20
10.8269848632813
 30
0
 40
0.485287535365021
 50
358.299327135601
 51
407.778027135601
 62
 30 
  0
ARC
  8
Stift_0
 10
15.9472509276032
 20
15.6094848632813
 30
0
 40
4.91051133842397
 50
281.943144649646
 51
295.743744649646
 62
 30 
  0
LINE
  8
Stift_0
 10
12.7918009276032
 20
10.6144848632813
 30
0
 11
12.0283009276032
 21
9.52448486328126
 31
0
 62
 30 
  0
LINE
  8
Stift_0
 10
12.0283009276032
 20
9.52448486328126
 30
0
 11
11.7011009276032
 21
8.59698486328125
 31
0
 62
 30 
  0
LINE
  8
Stift_0
 10
11.7011009276032
 20
8.59698486328125
 30
0
 11
12.2464509276032
 21
8.56948486328133
 31
0
 62
 30 
  0
LINE
  8
Stift_0
 10
12.2464509276032
 20
8.56948486328133
 30
0
 11
13.1463009276032
 21
10.4494848632812
 31
0
 62
 30 
  0
LINE
  8
Stift_0
 10
13.1463009276032
 20
10.4494848632812
 30
0
 11
12.7918009276032
 21
10.6144848632813
 31
0
 62
 30 
  0
LINE
  8
Stift_0
 10
11.2648009276032
 20
10.4244848632812
 30
0
 11
10.0104759276032
 21
10.4244848632812
 31
0
 62
 30 
  0
LINE
  8
Stift_0
 10
10.0104759276032
 20
10.4244848632812
 30
0
 11
10.4195009276032
 21
9.7969848632813
 31
0
 62
 30 
  0
LINE
  8
Stift_0
 10
10.4195009276032
 20
9.7969848632813
 30
0
 11
10.0104759276032
 21
9.00448486328128
 31
0
 62
 30 
  0
LINE
  8
Stift_0
 10
10.0104759276032
 20
9.00448486328128
 30
0
 11
11.4556759276032
 21
8.70448486328132
 31
0
 62
 30 
  0
LINE
  8
Stift_0
 10
11.4556759276032
 20
8.70448486328132
 30
0
 11
10.8830509276032
 21
9.3594848632813
 31
0
 62
 30 
  0
LINE
  8
Stift_0
 10
10.8830509276032
 20
9.3594848632813
 30
0
 11
11.2648009276032
 21
10.4244848632812
 31
0
 62
 30 
  0
LINE
  8
Stift_0
 10
11.7829009276032
 20
10.4494848632812
 30
0
 11
11.3193509276032
 21
10.4769848632814
 31
0
 62
 30 
  0
LINE
  8
Stift_0
 10
11.3193509276032
 20
10.4769848632814
 30
0
 11
11.2648009276032
 21
10.2594848632813
 31
0
 62
 30 
  0
LINE
  8
Stift_0
 10
11.2648009276032
 20
10.2594848632813
 30
0
 11
13.0372259276032
 21
8.48698486328124
 31
0
 62
 30 
  0
LINE
  8
Stift_0
 10
13.0372259276032
 20
8.48698486328124
 30
0
 11
13.4735009276032
 21
8.43198486328129
 31
0
 62
 30 
  0
LINE
  8
Stift_0
 10
13.4735009276032
 20
8.43198486328129
 30
0
 11
13.5280509276032
 21
8.67698486328129
 31
0
 62
 30 
  0
LINE
  8
Stift_0
 10
13.5280509276032
 20
8.67698486328129
 30
0
 11
11.7829009276032
 21
10.4494848632812
 31
0
 62
 30 
  0
LINE
  8
Stift_0
 10
4.85682592760325
 20
42.3269848632813
 30
0
 11
4.80230092760324
 21
41.6169848632812
 31
0
 62
 30 
  0
LINE
  8
Stift_0
 10
4.80230092760324
 20
41.6169848632812
 30
0
 11
5.32040092760325
 21
41.6444848632814
 31
0
 62
 30 
  0
LINE
  8
Stift_0
 10
5.32040092760325
 20
41.6444848632814
 30
0
 11
5.37492592760325
 21
42.4094848632813
 31
0
 62
 30 
  0
LINE
  8
Stift_0
 10
5.37492592760325
 20
42.4094848632813
 30
0
 11
4.85682592760325
 21
42.3269848632813
 31
0
 62
 30 
  0
LINE
  8
Stift_0
 10
7.22915092760324
 20
45.1619848632813
 30
0
 11
6.98372592760324
 21
44.2344848632813
 31
0
 62
 30 
  0
LINE
  8
Stift_0
 10
6.98372592760324
 20
44.2344848632813
 30
0
 11
7.50182592760325
 21
44.3169848632813
 31
0
 62
 30 
  0
LINE
  8
Stift_0
 10
7.50182592760325
 20
44.3169848632813
 30
0
 11
7.47455092760325
 21
45.1894848632813
 31
0
 62
 30 
  0
LINE
  8
Stift_0
 10
7.47455092760325
 20
45.1894848632813
 30
0
 11
7.22915092760324
 21
45.1619848632813
 31
0
 62
 30 
  0
LINE
  8
Stift_0
 10
7.61090092760325
 20
43.1719848632813
 30
0
 11
6.73832592760325
 21
42.9544848632813
 31
0
 62
 30 
  0
LINE
  8
Stift_0
 10
6.73832592760325
 20
42.9544848632813
 30
0
 11
6.65652592760325
 21
42.1369848632812
 31
0
 62
 30 
  0
LINE
  8
Stift_0
 10
6.65652592760325
 20
42.1369848632812
 30
0
 11
7.61090092760325
 21
42.3819848632813
 31
0
 62
 30 
  0
LINE
  8
Stift_0
 10
7.61090092760325
 20
42.3819848632813
 30
0
 11
7.61090092760325
 21
43.1719848632813
 31
0
 62
 30 
  0
LINE
  8
Stift_0
 10
5.89302592760324
 20
44.5619848632813
 30
0
 11
5.40220092760325
 21
44.4819848632814
 31
0
 62
 30 
  0
LINE
  8
Stift_0
 10
5.40220092760325
 20
44.4819848632814
 30
0
 11
5.26585092760325
 21
43.6894848632813
 31
0
 62
 30 
  0
LINE
  8
Stift_0
 10
5.26585092760325
 20
43.6894848632813
 30
0
 11
5.72940092760324
 21
43.7444848632813
 31
0
 62
 30 
  0
LINE
  8
Stift_0
 10
5.72940092760324
 20
43.7444848632813
 30
0
 11
5.89302592760324
 21
44.5619848632813
 31
0
 62
 30 
  0
LINE
  8
Stift_0
 10
6.43837592760325
 20
46.4444848632813
 30
0
 11
5.86575092760325
 21
46.3069848632813
 31
0
 62
 30 
  0
LINE
  8
Stift_0
 10
5.86575092760325
 20
46.3069848632813
 30
0
 11
5.81120092760325
 21
45.6794848632812
 31
0
 62
 30 
  0
LINE
  8
Stift_0
 10
5.81120092760325
 20
45.6794848632812
 30
0
 11
6.32930092760325
 21
45.8444848632813
 31
0
 62
 30 
  0
LINE
  8
Stift_0
 10
6.32930092760325
 20
45.8444848632813
 30
0
 11
6.43837592760325
 21
46.4444848632813
 31
0
 62
 30 
  0
LINE
  8
Stift_0
 10
4.63870092760324
 20
46.0894848632813
 30
0
 11
4.06605092760325
 21
45.8994848632813
 31
0
 62
 30 
  0
LINE
  8
Stift_0
 10
4.06605092760325
 20
45.8994848632813
 30
0
 11
4.06605092760325
 21
45.0819848632814
 31
0
 62
 30 
  0
LINE
  8
Stift_0
 10
4.06605092760325
 20
45.0819848632814
 30
0
 11
4.52962592760325
 21
45.2169848632813
 31
0
 62
 30 
  0
LINE
  8
Stift_0
 10
4.52962592760325
 20
45.2169848632813
 30
0
 11
4.63870092760324
 21
46.0894848632813
 31
0
 62
 30 
  0
LINE
  8
Stift_0
 10
9.46512592760324
 20
36.7644848632813
 30
0
 11
9.32877592760324
 21
36.0819848632814
 31
0
 62
 30 
  0
LINE
  8
Stift_0
 10
9.32877592760324
 20
36.0819848632814
 30
0
 11
9.81960092760325
 21
35.9744848632813
 31
0
 62
 30 
  0
LINE
  8
Stift_0
 10
9.81960092760325
 20
35.9744848632813
 30
0
 11
9.98320092760325
 21
36.6544848632813
 31
0
 62
 30 
  0
LINE
  8
Stift_0
 10
9.98320092760325
 20
36.6544848632813
 30
0
 11
9.46512592760324
 21
36.7644848632813
 31
0
 62
 30 
  0
LINE
  8
Stift_0
 10
8.56527592760324
 20
40.4994848632813
 30
0
 11
8.37440092760325
 21
39.6819848632813
 31
0
 62
 30 
  0
LINE
  8
Stift_0
 10
8.37440092760325
 20
39.6819848632813
 30
0
 11
8.94702592760325
 21
39.5444848632814
 31
0
 62
 30 
  0
LINE
  8
Stift_0
 10
8.94702592760325
 20
39.5444848632814
 30
0
 11
8.56527592760324
 21
40.4994848632813
 31
0
 62
 30 
  0
LINE
  8
Stift_0
 10
8.04717592760325
 20
38.4544848632813
 30
0
 11
7.85630092760324
 21
37.4194848632814
 31
0
 62
 30 
  0
LINE
  8
Stift_0
 10
7.85630092760324
 20
37.4194848632814
 30
0
 11
8.45620092760324
 21
37.3369848632813
 31
0
 62
 30 
  0
LINE
  8
Stift_0
 10
8.45620092760324
 20
37.3369848632813
 30
0
 11
8.70162592760324
 21
38.3194848632813
 31
0
 62
 30 
  0
LINE
  8
Stift_0
 10
8.70162592760324
 20
38.3194848632813
 30
0
 11
8.04717592760325
 21
38.4544848632813
 31
0
 62
 30 
  0
LINE
  8
Stift_0
 10
6.82012592760324
 20
39.0819848632814
 30
0
 11
6.16570092760325
 21
38.9994848632813
 31
0
 62
 30 
  0
LINE
  8
Stift_0
 10
6.16570092760325
 20
38.9994848632813
 30
0
 11
6.08390092760325
 21
38.3194848632813
 31
0
 62
 30 
  0
LINE
  8
Stift_0
 10
6.08390092760325
 20
38.3194848632813
 30
0
 11
6.79285092760324
 21
38.4269848632813
 31
0
 62
 30 
  0
LINE
  8
Stift_0
 10
6.79285092760324
 20
38.4269848632813
 30
0
 11
6.82012592760324
 21
39.0819848632814
 31
0
 62
 30 
  0
LINE
  8
Stift_0
 10
7.52910092760325
 20
36.1094848632813
 30
0
 11
7.33822592760324
 21
35.2094848632813
 31
0
 62
 30 
  0
LINE
  8
Stift_0
 10
7.33822592760324
 20
35.2094848632813
 30
0
 11
7.96537592760325
 21
35.1544848632813
 31
0
 62
 30 
  0
LINE
  8
Stift_0
 10
7.96537592760325
 20
35.1544848632813
 30
0
 11
8.07445092760324
 21
36.0544848632812
 31
0
 62
 30 
  0
LINE
  8
Stift_0
 10
8.07445092760324
 20
36.0544848632812
 30
0
 11
7.52910092760325
 21
36.1094848632813
 31
0
 62
 30 
  0
LINE
  8
Stift_0
 10
9.08337592760325
 20
34.8269848632813
 30
0
 11
8.83795092760325
 21
33.9019848632813
 31
0
 62
 30 
  0
LINE
  8
Stift_0
 10
8.83795092760325
 20
33.9019848632813
 30
0
 11
9.16517592760325
 21
33.8194848632813
 31
0
 62
 30 
  0
LINE
  8
Stift_0
 10
9.16517592760325
 20
33.8194848632813
 30
0
 11
9.41057592760325
 21
34.7744848632813
 31
0
 62
 30 
  0
LINE
  8
Stift_0
 10
9.41057592760325
 20
34.7744848632813
 30
0
 11
9.08337592760325
 21
34.8269848632813
 31
0
 62
 30 
  0
LINE
  8
Stift_0
 10
10.4467759276032
 20
34.3644848632813
 30
0
 11
10.2013509276032
 21
33.7369848632812
 31
0
 62
 30 
  0
LINE
  8
Stift_0
 10
10.2013509276032
 20
33.7369848632812
 30
0
 11
10.8285259276032
 21
33.6019848632814
 31
0
 62
 30 
  0
LINE
  8
Stift_0
 10
10.8285259276032
 20
33.6019848632814
 30
0
 11
11.0466509276032
 21
34.1744848632812
 31
0
 62
 30 
  0
LINE
  8
Stift_0
 10
11.0466509276032
 20
34.1744848632812
 30
0
 11
10.4467759276032
 21
34.3644848632813
 31
0
 62
 30 
  0
LINE
  8
Stift_0
 10
11.8919759276032
 20
32.6744848632812
 30
0
 11
11.6465509276032
 21
32.2369848632812
 31
0
 62
 30 
  0
LINE
  8
Stift_0
 10
11.6465509276032
 20
32.2369848632812
 30
0
 11
12.0555759276032
 21
31.9369848632813
 31
0
 62
 30 
  0
LINE
  8
Stift_0
 10
12.0555759276032
 20
31.9369848632813
 30
0
 11
12.2464509276032
 21
32.1019848632814
 31
0
 62
 30 
  0
LINE
  8
Stift_0
 10
12.2464509276032
 20
32.1019848632814
 30
0
 11
11.8919759276032
 21
32.6744848632812
 31
0
 62
 30 
  0
LINE
  8
Stift_0
 10
9.81960092760325
 20
32.5919848632813
 30
0
 11
9.54692592760325
 21
31.7194848632813
 31
0
 62
 30 
  0
LINE
  8
Stift_0
 10
9.54692592760325
 20
31.7194848632813
 30
0
 11
10.1468259276032
 21
31.6094848632813
 31
0
 62
 30 
  0
LINE
  8
Stift_0
 10
10.1468259276032
 20
31.6094848632813
 30
0
 11
10.3922259276032
 21
32.4294848632812
 31
0
 62
 30 
  0
LINE
  8
Stift_0
 10
10.3922259276032
 20
32.4294848632812
 30
0
 11
9.81960092760325
 21
32.5919848632813
 31
0
 62
 30 
  0
LINE
  8
Stift_0
 10
7.25642592760325
 20
41.1269848632813
 30
0
 11
6.30202592760325
 21
40.9094848632813
 31
0
 62
 30 
  0
LINE
  8
Stift_0
 10
6.30202592760325
 20
40.9094848632813
 30
0
 11
6.30202592760325
 21
40.2544848632813
 31
0
 62
 30 
  0
LINE
  8
Stift_0
 10
6.30202592760325
 20
40.2544848632813
 30
0
 11
7.25642592760325
 21
40.4169848632813
 31
0
 62
 30 
  0
LINE
  8
Stift_0
 10
7.25642592760325
 20
40.4169848632813
 30
0
 11
7.25642592760325
 21
41.1269848632813
 31
0
 62
 30 
  0
LINE
  8
Stift_0
 10
13.1463009276032
 20
27.6569848632813
 30
0
 11
12.8463509276032
 21
27.0019848632813
 31
0
 62
 30 
  0
LINE
  8
Stift_0
 10
12.8463509276032
 20
27.0019848632813
 30
0
 11
13.4735009276032
 21
26.7844848632813
 31
0
 62
 30 
  0
LINE
  8
Stift_0
 10
13.4735009276032
 20
26.7844848632813
 30
0
 11
13.8280009276032
 21
27.3569848632814
 31
0
 62
 30 
  0
LINE
  8
Stift_0
 10
13.8280009276032
 20
27.3569848632814
 30
0
 11
13.1463009276032
 21
27.6569848632813
 31
0
 62
 30 
  0
LINE
  8
Stift_0
 10
10.5831009276032
 20
29.5644848632813
 30
0
 11
10.8557759276032
 21
29.0744848632812
 31
0
 62
 30 
  0
LINE
  8
Stift_0
 10
10.8557759276032
 20
29.0744848632812
 30
0
 11
11.0739259276032
 21
29.4294848632812
 31
0
 62
 30 
  0
LINE
  8
Stift_0
 10
11.0739259276032
 20
29.4294848632812
 30
0
 11
10.5831009276032
 21
29.5644848632813
 31
0
 62
 30 
  0
LINE
  8
Stift_0
 10
14.8914509276032
 20
26.8394848632813
 30
0
 11
14.5915009276032
 21
26.2669848632813
 31
0
 62
 30 
  0
LINE
  8
Stift_0
 10
14.5915009276032
 20
26.2669848632813
 30
0
 11
15.0823259276032
 21
26.1569848632813
 31
0
 62
 30 
  0
LINE
  8
Stift_0
 10
15.0823259276032
 20
26.1569848632813
 30
0
 11
15.1368509276032
 21
26.4844848632813
 31
0
 62
 30 
  0
LINE
  8
Stift_0
 10
15.1368509276032
 20
26.4844848632813
 30
0
 11
14.8914509276032
 21
26.8394848632813
 31
0
 62
 30 
  0
LINE
  8
Stift_0
 10
11.8647009276032
 20
28.3644848632813
 30
0
 11
11.5647509276032
 21
27.5744848632812
 31
0
 62
 30 
  0
LINE
  8
Stift_0
 10
11.5647509276032
 20
27.5744848632812
 30
0
 11
12.4100509276032
 21
27.2744848632813
 31
0
 62
 30 
  0
LINE
  8
Stift_0
 10
12.4100509276032
 20
27.2744848632813
 30
0
 11
12.7918009276032
 21
27.9844848632813
 31
0
 62
 30 
  0
LINE
  8
Stift_0
 10
12.7918009276032
 20
27.9844848632813
 30
0
 11
11.8647009276032
 21
28.3644848632813
 31
0
 62
 30 
  0
LINE
  8
Stift_0
 10
11.1830009276032
 20
31.0644848632813
 30
0
 11
10.9921259276032
 21
30.6569848632813
 31
0
 62
 30 
  0
LINE
  8
Stift_0
 10
10.9921259276032
 20
30.6569848632813
 30
0
 11
11.5374759276032
 21
30.4094848632813
 31
0
 62
 30 
  0
LINE
  8
Stift_0
 10
11.5374759276032
 20
30.4094848632813
 30
0
 11
11.6738259276032
 21
30.8194848632813
 31
0
 62
 30 
  0
LINE
  8
Stift_0
 10
11.6738259276032
 20
30.8194848632813
 30
0
 11
11.1830009276032
 21
31.0644848632813
 31
0
 62
 30 
  0
LINE
  8
Stift_0
 10
15.9003509276032
 20
24.9019848632813
 30
0
 11
15.6276759276032
 21
24.2744848632813
 31
0
 62
 30 
  0
LINE
  8
Stift_0
 10
15.6276759276032
 20
24.2744848632813
 30
0
 11
16.2548509276032
 21
23.8394848632813
 31
0
 62
 30 
  0
LINE
  8
Stift_0
 10
16.2548509276032
 20
23.8394848632813
 30
0
 11
16.3911759276032
 21
24.0019848632813
 31
0
 62
 30 
  0
LINE
  8
Stift_0
 10
16.3911759276032
 20
24.0019848632813
 30
0
 11
15.9003509276032
 21
24.9019848632813
 31
0
 62
 30 
  0
LINE
  8
Stift_0
 10
16.3639009276032
 20
22.2569848632813
 30
0
 11
15.9549009276032
 21
21.5769848632813
 31
0
 62
 30 
  0
LINE
  8
Stift_0
 10
15.9549009276032
 20
21.5769848632813
 30
0
 11
16.5002509276032
 21
21.3844848632813
 31
0
 62
 30 
  0
LINE
  8
Stift_0
 10
16.5002509276032
 20
21.3844848632813
 30
0
 11
16.8274759276032
 21
21.9569848632814
 31
0
 62
 30 
  0
LINE
  8
Stift_0
 10
16.8274759276032
 20
21.9569848632814
 30
0
 11
16.3639009276032
 21
22.2569848632813
 31
0
 62
 30 
  0
LINE
  8
Stift_0
 10
14.8369009276032
 20
23.1294848632813
 30
0
 11
14.4824259276032
 21
22.5019848632813
 31
0
 62
 30 
  0
LINE
  8
Stift_0
 10
14.4824259276032
 20
22.5019848632813
 30
0
 11
14.9459759276032
 21
22.3669848632812
 31
0
 62
 30 
  0
LINE
  8
Stift_0
 10
14.9459759276032
 20
22.3669848632812
 30
0
 11
15.2186509276032
 21
22.9394848632813
 31
0
 62
 30 
  0
LINE
  8
Stift_0
 10
15.2186509276032
 20
22.9394848632813
 30
0
 11
14.8369009276032
 21
23.1294848632813
 31
0
 62
 30 
  0
LINE
  8
Stift_0
 10
14.1279509276032
 20
25.3944848632814
 30
0
 11
13.8280009276032
 21
24.8219848632813
 31
0
 62
 30 
  0
LINE
  8
Stift_0
 10
13.8280009276032
 20
24.8219848632813
 30
0
 11
14.2915509276032
 21
24.5744848632812
 31
0
 62
 30 
  0
LINE
  8
Stift_0
 10
14.2915509276032
 20
24.5744848632812
 30
0
 11
14.5642259276032
 21
25.1469848632813
 31
0
 62
 30 
  0
LINE
  8
Stift_0
 10
14.5642259276032
 20
25.1469848632813
 30
0
 11
14.1279509276032
 21
25.3944848632814
 31
0
 62
 30 
  0
LINE
  8
Stift_0
 10
12.7100009276032
 20
30.3569848632814
 30
0
 11
12.3282509276032
 21
29.5644848632813
 31
0
 62
 30 
  0
LINE
  8
Stift_0
 10
12.3282509276032
 20
29.5644848632813
 30
0
 11
12.9008759276032
 21
29.2369848632812
 31
0
 62
 30 
  0
LINE
  8
Stift_0
 10
12.9008759276032
 20
29.2369848632812
 30
0
 11
13.3099009276032
 21
30.1094848632813
 31
0
 62
 30 
  0
LINE
  8
Stift_0
 10
13.3099009276032
 20
30.1094848632813
 30
0
 11
12.7100009276032
 21
30.3569848632814
 31
0
 62
 30 
  0
LINE
  8
Stift_0
 10
16.7456509276032
 20
19.7494848632813
 30
0
 11
16.4184509276032
 21
19.2844848632813
 31
0
 62
 30 
  0
LINE
  8
Stift_0
 10
16.4184509276032
 20
19.2844848632813
 30
0
 11
16.8820009276032
 21
19.0119848632812
 31
0
 62
 30 
  0
LINE
  8
Stift_0
 10
16.8820009276032
 20
19.0119848632812
 30
0
 11
17.1819509276032
 21
19.5044848632813
 31
0
 62
 30 
  0
LINE
  8
Stift_0
 10
17.1819509276032
 20
19.5044848632813
 30
0
 11
16.7456509276032
 21
19.7494848632813
 31
0
 62
 30 
  0
LINE
  8
Stift_0
 10
17.2364759276032
 20
17.0769848632813
 30
0
 11
16.7456509276032
 21
16.5319848632813
 31
0
 62
 30 
  0
LINE
  8
Stift_0
 10
16.7456509276032
 20
16.5319848632813
 30
0
 11
17.3455509276032
 21
16.0669848632813
 31
0
 62
 30 
  0
LINE
  8
Stift_0
 10
17.3455509276032
 20
16.0669848632813
 30
0
 11
17.8363759276032
 21
16.6119848632812
 31
0
 62
 30 
  0
LINE
  8
Stift_0
 10
17.8363759276032
 20
16.6119848632812
 30
0
 11
17.2364759276032
 21
17.0769848632813
 31
0
 62
 30 
  0
LINE
  8
Stift_0
 10
18.2999259276032
 20
18.7944848632814
 30
0
 11
17.9727259276032
 21
18.2219848632813
 31
0
 62
 30 
  0
LINE
  8
Stift_0
 10
17.9727259276032
 20
18.2219848632813
 30
0
 11
18.4090009276032
 21
17.8944848632814
 31
0
 62
 30 
  0
ARC
  8
Stift_0
 10
17.8700259276032
 20
18.4294848632812
 30
0
 40
0.759420206884792
 50
315.212062369792
 51
354.954162369792
 62
 30 
  0
ARC
  8
Stift_0
 10
17.8046509276032
 20
18.0794848632813
 30
0
 40
0.869279701758721
 50
19.0137447529595
 51
55.2977447529595
 62
 30 
  0
LINE
  8
Stift_0
 10
19.0089009276032
 20
15.8769848632813
 30
0
 11
18.4090009276032
 21
15.1394848632813
 31
0
 62
 30 
  0
LINE
  8
Stift_0
 10
18.4090009276032
 20
15.1394848632813
 30
0
 11
19.0907009276032
 21
14.5394848632814
 31
0
 62
 30 
  0
LINE
  8
Stift_0
 10
19.0907009276032
 20
14.5394848632814
 30
0
 11
19.1130509276032
 21
15.2019848632813
 31
0
 62
 30 
  0
LINE
  8
Stift_0
 10
19.1130509276032
 20
15.2019848632813
 30
0
 11
19.0089009276032
 21
15.8769848632813
 31
0
 62
 30 
  0
LINE
  8
Stift_0
 10
16.7184009276032
 20
11.9769848632814
 30
0
 11
15.8730759276032
 21
11.8694848632813
 31
0
 62
 30 
  0
LINE
  8
Stift_0
 10
15.8730759276032
 20
11.8694848632813
 30
0
 11
16.2003009276032
 21
11.1594848632813
 31
0
 62
 30 
  0
LINE
  8
Stift_0
 10
16.2003009276032
 20
11.1594848632813
 30
0
 11
17.0728759276032
 21
11.2694848632814
 31
0
 62
 30 
  0
LINE
  8
Stift_0
 10
17.0728759276032
 20
11.2694848632814
 30
0
 11
16.7184009276032
 21
11.9769848632814
 31
0
 62
 30 
  0
LINE
  8
Stift_0
 10
17.4273509276032
 20
20.6769848632813
 30
0
 11
17.8636509276032
 21
20.5119848632812
 31
0
 62
 30 
  0
LINE
  8
Stift_0
 10
17.8636509276032
 20
20.5119848632812
 30
0
 11
17.6727759276032
 21
21.0569848632813
 31
0
 62
 30 
  0
LINE
  8
Stift_0
 10
17.6727759276032
 20
21.0569848632813
 30
0
 11
17.4273509276032
 21
20.6769848632813
 31
0
 62
 30 
  0
LINE
  8
Stift_0
 10
15.5186009276032
 20
18.1669848632813
 30
0
 11
15.6004009276032
 21
17.2669848632813
 31
0
 62
 30 
  0
LINE
  8
Stift_0
 10
15.6004009276032
 20
17.2669848632813
 30
0
 11
16.1730259276032
 21
17.8669848632812
 31
0
 62
 30 
  0
LINE
  8
Stift_0
 10
16.1730259276032
 20
17.8669848632812
 30
0
 11
15.5186009276032
 21
18.1669848632813
 31
0
 62
 30 
  0
LINE
  8
Stift_0
 10
14.9732509276032
 20
10.2319848632814
 30
0
 11
14.9187009276032
 21
9.8494848632813
 31
0
 62
 30 
  0
LINE
  8
Stift_0
 10
14.9187009276032
 20
9.8494848632813
 30
0
 11
15.4368009276032
 21
9.54948486328124
 31
0
 62
 30 
  0
LINE
  8
Stift_0
 10
15.4368009276032
 20
9.54948486328124
 30
0
 11
15.5458759276032
 21
10.1244848632813
 31
0
 62
 30 
  0
LINE
  8
Stift_0
 10
15.5458759276032
 20
10.1244848632813
 30
0
 11
14.9732509276032
 21
10.2319848632814
 31
0
 62
 30 
  0
LINE
  8
Stift_0
 10
18.7089509276032
 20
12.1944848632813
 30
0
 11
18.0545259276032
 21
12.1419848632813
 31
0
 62
 30 
  0
LINE
  8
Stift_0
 10
18.0545259276032
 20
12.1419848632813
 30
0
 11
18.4362759276032
 21
11.3219848632813
 31
0
 62
 30 
  0
LINE
  8
Stift_0
 10
18.4362759276032
 20
11.3219848632813
 30
0
 11
18.6204009276032
 21
11.7919848632813
 31
0
 62
 30 
  0
LINE
  8
Stift_0
 10
18.6204009276032
 20
11.7919848632813
 30
0
 11
18.7089509276032
 21
12.1944848632813
 31
0
 62
 30 
  0
LINE
  8
Stift_0
 10
14.8096259276032
 20
20.8944848632814
 30
0
 11
15.0237259276032
 21
20.1719848632813
 31
0
 62
 30 
  0
LINE
  8
Stift_0
 10
15.0237259276032
 20
20.1719848632813
 30
0
 11
15.2186509276032
 21
19.5044848632813
 31
0
 62
 30 
  0
LINE
  8
Stift_0
 10
15.2186509276032
 20
19.5044848632813
 30
0
 11
15.7094759276032
 21
20.3769848632813
 31
0
 62
 30 
  0
LINE
  8
Stift_0
 10
15.7094759276032
 20
20.3769848632813
 30
0
 11
14.8096259276032
 21
20.8944848632814
 31
0
 62
 30 
  0
LINE
  8
Stift_0
 10
17.0183509276032
 20
14.5944848632813
 30
0
 11
16.3639009276032
 21
14.5144848632813
 31
0
 62
 30 
  0
LINE
  8
Stift_0
 10
16.3639009276032
 20
14.5144848632813
 30
0
 11
16.6093259276032
 21
14.1594848632813
 31
0
 62
 30 
  0
LINE
  8
Stift_0
 10
16.6093259276032
 20
14.1594848632813
 30
0
 11
17.3455509276032
 21
14.2669848632813
 31
0
 62
 30 
  0
LINE
  8
Stift_0
 10
17.3455509276032
 20
14.2669848632813
 30
0
 11
17.0183509276032
 21
14.5944848632813
 31
0
 62
 30 
  0
LINE
  8
Stift_0
 10
13.2281009276032
 20
9.8494848632813
 30
0
 11
13.0372259276032
 21
9.49698486328134
 31
0
 62
 30 
  0
LINE
  8
Stift_0
 10
13.0372259276032
 20
9.49698486328134
 30
0
 11
13.4735009276032
 21
9.19698486328127
 31
0
 62
 30 
  0
LINE
  8
Stift_0
 10
13.4735009276032
 20
9.19698486328127
 30
0
 11
13.6371259276032
 21
9.49698486328134
 31
0
 62
 30 
  0
LINE
  8
Stift_0
 10
13.6371259276032
 20
9.49698486328134
 30
0
 11
13.2281009276032
 21
9.8494848632813
 31
0
 62
 30 
  0
LINE
  8
Stift_0
 10
18.2454009276032
 20
13.5869848632813
 30
0
 11
17.5909759276032
 21
13.4494848632812
 31
0
 62
 30 
  0
LINE
  8
Stift_0
 10
17.5909759276032
 20
13.4494848632812
 30
0
 11
17.9181759276032
 21
13.1219848632813
 31
0
 62
 30 
  0
LINE
  8
Stift_0
 10
17.9181759276032
 20
13.1219848632813
 30
0
 11
18.5998759276032
 21
13.2594848632813
 31
0
 62
 30 
  0
LINE
  8
Stift_0
 10
18.5998759276032
 20
13.2594848632813
 30
0
 11
18.2454009276032
 21
13.5869848632813
 31
0
 62
 30 
  0
LINE
  8
Stift_0
 10
15.3004509276032
 20
13.5319848632813
 30
0
 11
15.2186509276032
 21
13.1219848632813
 31
0
 62
 30 
  0
LINE
  8
Stift_0
 10
15.2186509276032
 20
13.1219848632813
 30
0
 11
15.9003509276032
 21
13.2044848632813
 31
0
 62
 30 
  0
LINE
  8
Stift_0
 10
15.9003509276032
 20
13.2044848632813
 30
0
 11
15.3004509276032
 21
13.5319848632813
 31
0
 62
 30 
  0
LINE
  8
Stift_0
 10
15.5731509276032
 20
15.8219848632813
 30
0
 11
15.5731509276032
 21
15.3044848632812
 31
0
 62
 30 
  0
LINE
  8
Stift_0
 10
15.5731509276032
 20
15.3044848632812
 30
0
 11
16.0912259276032
 21
15.4394848632813
 31
0
 62
 30 
  0
LINE
  8
Stift_0
 10
16.0912259276032
 20
15.4394848632813
 30
0
 11
15.5731509276032
 21
15.8219848632813
 31
0
 62
 30 
  0
LINE
  8
Stift_0
 10
14.5778509276032
 20
11.4144848632814
 30
0
 11
14.5277009276032
 21
11.4219848632813
 31
0
 62
 30 
  0
LINE
  8
Stift_0
 10
14.5277009276032
 20
11.4219848632813
 30
0
 11
14.4809759276032
 21
11.4419848632813
 31
0
 62
 30 
  0
LINE
  8
Stift_0
 10
14.4809759276032
 20
11.4419848632813
 30
0
 11
14.4408509276032
 21
11.4719848632813
 31
0
 62
 30 
  0
LINE
  8
Stift_0
 10
14.4408509276032
 20
11.4719848632813
 30
0
 11
14.4100509276032
 21
11.5119848632812
 31
0
 62
 30 
  0
LINE
  8
Stift_0
 10
14.4100509276032
 20
11.5119848632812
 30
0
 11
14.3907009276032
 21
11.5594848632813
 31
0
 62
 30 
  0
LINE
  8
Stift_0
 10
14.3907009276032
 20
11.5594848632813
 30
0
 11
14.3840759276032
 21
11.6094848632813
 31
0
 62
 30 
  0
LINE
  8
Stift_0
 10
14.3840759276032
 20
11.6094848632813
 30
0
 11
14.3907009276032
 21
11.6594848632813
 31
0
 62
 30 
  0
LINE
  8
Stift_0
 10
14.3907009276032
 20
11.6594848632813
 30
0
 11
14.4100509276032
 21
11.7069848632814
 31
0
 62
 30 
  0
LINE
  8
Stift_0
 10
14.4100509276032
 20
11.7069848632814
 30
0
 11
14.4408509276032
 21
11.7469848632813
 31
0
 62
 30 
  0
LINE
  8
Stift_0
 10
14.4408509276032
 20
11.7469848632813
 30
0
 11
14.4809759276032
 21
11.7769848632813
 31
0
 62
 30 
  0
LINE
  8
Stift_0
 10
14.4809759276032
 20
11.7769848632813
 30
0
 11
14.5277009276032
 21
11.7969848632813
 31
0
 62
 30 
  0
LINE
  8
Stift_0
 10
14.5277009276032
 20
11.7969848632813
 30
0
 11
14.5778509276032
 21
11.8019848632813
 31
0
 62
 30 
  0
LINE
  8
Stift_0
 10
14.5778509276032
 20
11.8019848632813
 30
0
 11
14.6280009276032
 21
11.7969848632813
 31
0
 62
 30 
  0
LINE
  8
Stift_0
 10
14.6280009276032
 20
11.7969848632813
 30
0
 11
14.6747509276032
 21
11.7769848632813
 31
0
 62
 30 
  0
LINE
  8
Stift_0
 10
14.6747509276032
 20
11.7769848632813
 30
0
 11
14.7148759276032
 21
11.7469848632813
 31
0
 62
 30 
  0
LINE
  8
Stift_0
 10
14.7148759276032
 20
11.7469848632813
 30
0
 11
14.7456759276032
 21
11.7069848632814
 31
0
 62
 30 
  0
LINE
  8
Stift_0
 10
14.7456759276032
 20
11.7069848632814
 30
0
 11
14.7650259276032
 21
11.6594848632813
 31
0
 62
 30 
  0
LINE
  8
Stift_0
 10
14.7650259276032
 20
11.6594848632813
 30
0
 11
14.7716259276032
 21
11.6094848632813
 31
0
 62
 30 
  0
LINE
  8
Stift_0
 10
14.7716259276032
 20
11.6094848632813
 30
0
 11
14.7650259276032
 21
11.5594848632813
 31
0
 62
 30 
  0
LINE
  8
Stift_0
 10
14.7650259276032
 20
11.5594848632813
 30
0
 11
14.7456759276032
 21
11.5119848632812
 31
0
 62
 30 
  0
LINE
  8
Stift_0
 10
14.7456759276032
 20
11.5119848632812
 30
0
 11
14.7148759276032
 21
11.4719848632813
 31
0
 62
 30 
  0
LINE
  8
Stift_0
 10
14.7148759276032
 20
11.4719848632813
 30
0
 11
14.6747509276032
 21
11.4419848632813
 31
0
 62
 30 
  0
LINE
  8
Stift_0
 10
14.6747509276032
 20
11.4419848632813
 30
0
 11
14.6280009276032
 21
11.4219848632813
 31
0
 62
 30 
  0
LINE
  8
Stift_0
 10
14.6280009276032
 20
11.4219848632813
 30
0
 11
14.5778509276032
 21
11.4144848632814
 31
0
 62
 30 
  0
LINE
  8
Stift_0
 10
13.8143509276032
 20
10.6219848632813
 30
0
 11
13.7668759276032
 21
10.6269848632813
 31
0
 62
 30 
  0
LINE
  8
Stift_0
 10
13.7668759276032
 20
10.6269848632813
 30
0
 11
13.7226509276032
 21
10.6469848632813
 31
0
 62
 30 
  0
LINE
  8
Stift_0
 10
13.7226509276032
 20
10.6469848632813
 30
0
 11
13.6846509276032
 21
10.6744848632812
 31
0
 62
 30 
  0
LINE
  8
Stift_0
 10
13.6846509276032
 20
10.6744848632812
 30
0
 11
13.6555009276032
 21
10.7144848632813
 31
0
 62
 30 
  0
LINE
  8
Stift_0
 10
13.6555009276032
 20
10.7144848632813
 30
0
 11
13.6371759276032
 21
10.7569848632813
 31
0
 62
 30 
  0
LINE
  8
Stift_0
 10
13.6371759276032
 20
10.7569848632813
 30
0
 11
13.6309259276032
 21
10.8044848632812
 31
0
 62
 30 
  0
LINE
  8
Stift_0
 10
13.6309259276032
 20
10.8044848632812
 30
0
 11
13.6371759276032
 21
10.8519848632814
 31
0
 62
 30 
  0
LINE
  8
Stift_0
 10
13.6371759276032
 20
10.8519848632814
 30
0
 11
13.6555009276032
 21
10.8969848632813
 31
0
 62
 30 
  0
LINE
  8
Stift_0
 10
13.6555009276032
 20
10.8969848632813
 30
0
 11
13.6846509276032
 21
10.9344848632813
 31
0
 62
 30 
  0
LINE
  8
Stift_0
 10
13.6846509276032
 20
10.9344848632813
 30
0
 11
13.7226509276032
 21
10.9644848632813
 31
0
 62
 30 
  0
LINE
  8
Stift_0
 10
13.7226509276032
 20
10.9644848632813
 30
0
 11
13.7668759276032
 21
10.9819848632814
 31
0
 62
 30 
  0
LINE
  8
Stift_0
 10
13.7668759276032
 20
10.9819848632814
 30
0
 11
13.8143509276032
 21
10.9894848632813
 31
0
 62
 30 
  0
LINE
  8
Stift_0
 10
13.8143509276032
 20
10.9894848632813
 30
0
 11
13.8618259276032
 21
10.9819848632814
 31
0
 62
 30 
  0
LINE
  8
Stift_0
 10
13.8618259276032
 20
10.9819848632814
 30
0
 11
13.9060759276032
 21
10.9644848632813
 31
0
 62
 30 
  0
LINE
  8
Stift_0
 10
13.9060759276032
 20
10.9644848632813
 30
0
 11
13.9440509276032
 21
10.9344848632813
 31
0
 62
 30 
  0
LINE
  8
Stift_0
 10
13.9440509276032
 20
10.9344848632813
 30
0
 11
13.9732009276032
 21
10.8969848632813
 31
0
 62
 30 
  0
LINE
  8
Stift_0
 10
13.9732009276032
 20
10.8969848632813
 30
0
 11
13.9915259276032
 21
10.8519848632814
 31
0
 62
 30 
  0
LINE
  8
Stift_0
 10
13.9915259276032
 20
10.8519848632814
 30
0
 11
13.9977759276032
 21
10.8044848632812
 31
0
 62
 30 
  0
LINE
  8
Stift_0
 10
13.9977759276032
 20
10.8044848632812
 30
0
 11
13.9915259276032
 21
10.7569848632813
 31
0
 62
 30 
  0
LINE
  8
Stift_0
 10
13.9915259276032
 20
10.7569848632813
 30
0
 11
13.9732009276032
 21
10.7144848632813
 31
0
 62
 30 
  0
LINE
  8
Stift_0
 10
13.9732009276032
 20
10.7144848632813
 30
0
 11
13.9440509276032
 21
10.6744848632812
 31
0
 62
 30 
  0
LINE
  8
Stift_0
 10
13.9440509276032
 20
10.6744848632812
 30
0
 11
13.9060759276032
 21
10.6469848632813
 31
0
 62
 30 
  0
LINE
  8
Stift_0
 10
13.9060759276032
 20
10.6469848632813
 30
0
 11
13.8618259276032
 21
10.6269848632813
 31
0
 62
 30 
  0
LINE
  8
Stift_0
 10
13.8618259276032
 20
10.6269848632813
 30
0
 11
13.8143509276032
 21
10.6219848632813
 31
0
 62
 30 
  0
LINE
  8
Stift_0
 10
11.4420509276032
 20
9.24198486328123
 30
0
 11
11.3833259276032
 21
9.24948486328128
 31
0
 62
 30 
  0
LINE
  8
Stift_0
 10
11.3833259276032
 20
9.24948486328128
 30
0
 11
11.3286009276032
 21
9.27198486328132
 31
0
 62
 30 
  0
LINE
  8
Stift_0
 10
11.3286009276032
 20
9.27198486328132
 30
0
 11
11.2816009276032
 21
9.30948486328134
 31
0
 62
 30 
  0
LINE
  8
Stift_0
 10
11.2816009276032
 20
9.30948486328134
 30
0
 11
11.2455259276032
 21
9.3544848632813
 31
0
 62
 30 
  0
LINE
  8
Stift_0
 10
11.2455259276032
 20
9.3544848632813
 30
0
 11
11.2228759276032
 21
9.40948486328125
 31
0
 62
 30 
  0
LINE
  8
Stift_0
 10
11.2228759276032
 20
9.40948486328125
 30
0
 11
11.2151259276032
 21
9.46948486328131
 31
0
 62
 30 
  0
LINE
  8
Stift_0
 10
11.2151259276032
 20
9.46948486328131
 30
0
 11
11.2228759276032
 21
9.52698486328131
 31
0
 62
 30 
  0
LINE
  8
Stift_0
 10
11.2228759276032
 20
9.52698486328131
 30
0
 11
11.2455259276032
 21
9.58198486328138
 31
0
 62
 30 
  0
LINE
  8
Stift_0
 10
11.2455259276032
 20
9.58198486328138
 30
0
 11
11.2816009276032
 21
9.62948486328128
 31
0
 62
 30 
  0
LINE
  8
Stift_0
 10
11.2816009276032
 20
9.62948486328128
 30
0
 11
11.3286009276032
 21
9.66448486328136
 31
0
 62
 30 
  0
LINE
  8
Stift_0
 10
11.3286009276032
 20
9.66448486328136
 30
0
 11
11.3833259276032
 21
9.68698486328128
 31
0
 62
 30 
  0
LINE
  8
Stift_0
 10
11.3833259276032
 20
9.68698486328128
 30
0
 11
11.4420509276032
 21
9.69698486328127
 31
0
 62
 30 
  0
LINE
  8
Stift_0
 10
11.4420509276032
 20
9.69698486328127
 30
0
 11
11.5007759276032
 21
9.68698486328128
 31
0
 62
 30 
  0
LINE
  8
Stift_0
 10
11.5007759276032
 20
9.68698486328128
 30
0
 11
11.5555009276032
 21
9.66448486328136
 31
0
 62
 30 
  0
LINE
  8
Stift_0
 10
11.5555009276032
 20
9.66448486328136
 30
0
 11
11.6025009276032
 21
9.62948486328128
 31
0
 62
 30 
  0
LINE
  8
Stift_0
 10
11.6025009276032
 20
9.62948486328128
 30
0
 11
11.6385509276032
 21
9.58198486328138
 31
0
 62
 30 
  0
LINE
  8
Stift_0
 10
11.6385509276032
 20
9.58198486328138
 30
0
 11
11.6612259276032
 21
9.52698486328131
 31
0
 62
 30 
  0
LINE
  8
Stift_0
 10
11.6612259276032
 20
9.52698486328131
 30
0
 11
11.6689509276032
 21
9.46948486328131
 31
0
 62
 30 
  0
LINE
  8
Stift_0
 10
11.6689509276032
 20
9.46948486328131
 30
0
 11
11.6612259276032
 21
9.40948486328125
 31
0
 62
 30 
  0
LINE
  8
Stift_0
 10
11.6612259276032
 20
9.40948486328125
 30
0
 11
11.6385509276032
 21
9.3544848632813
 31
0
 62
 30 
  0
LINE
  8
Stift_0
 10
11.6385509276032
 20
9.3544848632813
 30
0
 11
11.6025009276032
 21
9.30948486328134
 31
0
 62
 30 
  0
LINE
  8
Stift_0
 10
11.6025009276032
 20
9.30948486328134
 30
0
 11
11.5555009276032
 21
9.27198486328132
 31
0
 62
 30 
  0
LINE
  8
Stift_0
 10
11.5555009276032
 20
9.27198486328132
 30
0
 11
11.5007759276032
 21
9.24948486328128
 31
0
 62
 30 
  0
LINE
  8
Stift_0
 10
11.5007759276032
 20
9.24948486328128
 30
0
 11
11.4420509276032
 21
9.24198486328123
 31
0
 62
 30 
  0
LINE
  8
Stift_0
 10
9.88777592760325
 20
9.56698486328128
 30
0
 11
9.82862592760325
 21
9.57448486328121
 31
0
 62
 30 
  0
LINE
  8
Stift_0
 10
9.82862592760325
 20
9.57448486328121
 30
0
 11
9.77350092760324
 21
9.59698486328125
 31
0
 62
 30 
  0
LINE
  8
Stift_0
 10
9.77350092760324
 20
9.59698486328125
 30
0
 11
9.72617592760325
 21
9.63448486328127
 31
0
 62
 30 
  0
LINE
  8
Stift_0
 10
9.72617592760325
 20
9.63448486328127
 30
0
 11
9.68985092760325
 21
9.68198486328129
 31
0
 62
 30 
  0
LINE
  8
Stift_0
 10
9.68985092760325
 20
9.68198486328129
 30
0
 11
9.66702592760325
 21
9.73698486328124
 31
0
 62
 30 
  0
LINE
  8
Stift_0
 10
9.66702592760325
 20
9.73698486328124
 30
0
 11
9.65922592760325
 21
9.7969848632813
 31
0
 62
 30 
  0
LINE
  8
Stift_0
 10
9.65922592760325
 20
9.7969848632813
 30
0
 11
9.66702592760325
 21
9.8544848632813
 31
0
 62
 30 
  0
LINE
  8
Stift_0
 10
9.66702592760325
 20
9.8544848632813
 30
0
 11
9.68985092760325
 21
9.90948486328125
 31
0
 62
 30 
  0
LINE
  8
Stift_0
 10
9.68985092760325
 20
9.90948486328125
 30
0
 11
9.72617592760325
 21
9.95698486328138
 31
0
 62
 30 
  0
LINE
  8
Stift_0
 10
9.72617592760325
 20
9.95698486328138
 30
0
 11
9.77350092760324
 21
9.99448486328129
 31
0
 62
 30 
  0
LINE
  8
Stift_0
 10
9.77350092760324
 20
9.99448486328129
 30
0
 11
9.82862592760325
 21
10.0169848632813
 31
0
 62
 30 
  0
LINE
  8
Stift_0
 10
9.82862592760325
 20
10.0169848632813
 30
0
 11
9.88777592760325
 21
10.0244848632813
 31
0
 62
 30 
  0
LINE
  8
Stift_0
 10
9.88777592760325
 20
10.0244848632813
 30
0
 11
9.94692592760325
 21
10.0169848632813
 31
0
 62
 30 
  0
LINE
  8
Stift_0
 10
9.94692592760325
 20
10.0169848632813
 30
0
 11
10.0020509276032
 21
9.99448486328129
 31
0
 62
 30 
  0
LINE
  8
Stift_0
 10
10.0020509276032
 20
9.99448486328129
 30
0
 11
10.0493759276032
 21
9.95698486328138
 31
0
 62
 30 
  0
LINE
  8
Stift_0
 10
10.0493759276032
 20
9.95698486328138
 30
0
 11
10.0857009276032
 21
9.90948486328125
 31
0
 62
 30 
  0
LINE
  8
Stift_0
 10
10.0857009276032
 20
9.90948486328125
 30
0
 11
10.1085259276032
 21
9.8544848632813
 31
0
 62
 30 
  0
LINE
  8
Stift_0
 10
10.1085259276032
 20
9.8544848632813
 30
0
 11
10.1163259276032
 21
9.7969848632813
 31
0
 62
 30 
  0
LINE
  8
Stift_0
 10
10.1163259276032
 20
9.7969848632813
 30
0
 11
10.1085259276032
 21
9.73698486328124
 31
0
 62
 30 
  0
LINE
  8
Stift_0
 10
10.1085259276032
 20
9.73698486328124
 30
0
 11
10.0857009276032
 21
9.68198486328129
 31
0
 62
 30 
  0
LINE
  8
Stift_0
 10
10.0857009276032
 20
9.68198486328129
 30
0
 11
10.0493759276032
 21
9.63448486328127
 31
0
 62
 30 
  0
LINE
  8
Stift_0
 10
10.0493759276032
 20
9.63448486328127
 30
0
 11
10.0020509276032
 21
9.59698486328125
 31
0
 62
 30 
  0
LINE
  8
Stift_0
 10
10.0020509276032
 20
9.59698486328125
 30
0
 11
9.94692592760325
 21
9.57448486328121
 31
0
 62
 30 
  0
LINE
  8
Stift_0
 10
9.94692592760325
 20
9.57448486328121
 30
0
 11
9.88777592760325
 21
9.56698486328128
 31
0
 62
 30 
  0
ARC
  8
Stift_0
 10
19.1753009276032
 20
55.5994848632813
 30
0
 40
0.166691183405185
 50
119.556226703496
 51
209.893326703496
 62
 30 
  0
LINE
  8
Stift_0
 10
19.0307872056292
 20
55.5164081831223
 30
0
 11
19.2641509276032
 21
55.2169848632813
 31
0
 62
 30 
  0
LINE
  8
Stift_0
 10
19.2641509276032
 20
55.2169848632813
 30
0
 11
19.7239509276032
 21
54.9094848632813
 31
0
 62
 30 
  0
LINE
  8
Stift_0
 10
19.7239509276032
 20
54.9094848632813
 30
0
 11
20.3527009276032
 21
54.6894848632813
 31
0
 62
 30 
  0
LINE
  8
Stift_0
 10
20.3527009276032
 20
54.6894848632813
 30
0
 11
21.0713509276032
 21
54.6244848632813
 31
0
 62
 30 
  0
ARC
  8
Stift_0
 10
21.1293509276032
 20
55.0544848632812
 30
0
 40
0.433893996270996
 50
262.318095383749
 51
319.073995383749
 62
 30 
  0
ARC
  8
Stift_0
 10
21.0254509276032
 20
54.7119848632813
 30
0
 40
0.435644935668179
 50
7.68575553616605
 51
55.037455536166
 62
 30 
  0
LINE
  8
Stift_0
 10
21.2750932569225
 20
55.0690075759837
 30
0
 11
20.9436509276032
 21
55.3794848632813
 31
0
 62
 30 
  0
LINE
  8
Stift_0
 10
20.9436509276032
 20
55.3794848632813
 30
0
 11
20.5454259276032
 21
55.5744848632812
 31
0
 62
 30 
  0
LINE
  8
Stift_0
 10
20.5454259276032
 20
55.5744848632812
 30
0
 11
20.0822509276032
 21
55.6819848632813
 31
0
 62
 30 
  0
LINE
  8
Stift_0
 10
20.0822509276032
 20
55.6819848632813
 30
0
 11
19.5184259276032
 21
55.7519848632813
 31
0
 62
 30 
  0
LINE
  8
Stift_0
 10
19.5184259276032
 20
55.7519848632813
 30
0
 11
19.0930759276032
 21
55.7444848632813
 31
0
 62
 30 
  0
LINE
  8
Stift_0
 10
7.34237592760324
 20
50.6369848632812
 30
0
 11
7.27252592760324
 21
50.6469848632813
 31
0
 62
 30 
  0
LINE
  8
Stift_0
 10
7.27252592760324
 20
50.6469848632813
 30
0
 11
7.20742592760325
 21
50.6744848632812
 31
0
 62
 30 
  0
LINE
  8
Stift_0
 10
7.20742592760325
 20
50.6744848632812
 30
0
 11
7.15152592760325
 21
50.7169848632813
 31
0
 62
 30 
  0
LINE
  8
Stift_0
 10
7.15152592760325
 20
50.7169848632813
 30
0
 11
7.10865092760324
 21
50.7719848632813
 31
0
 62
 30 
  0
LINE
  8
Stift_0
 10
7.10865092760324
 20
50.7719848632813
 30
0
 11
7.08167592760324
 21
50.8369848632813
 31
0
 62
 30 
  0
LINE
  8
Stift_0
 10
7.08167592760324
 20
50.8369848632813
 30
0
 11
7.07247592760324
 21
50.9069848632813
 31
0
 62
 30 
  0
LINE
  8
Stift_0
 10
7.07247592760324
 20
50.9069848632813
 30
0
 11
7.08167592760324
 21
50.9769848632814
 31
0
 62
 30 
  0
LINE
  8
Stift_0
 10
7.08167592760324
 20
50.9769848632814
 30
0
 11
7.10865092760324
 21
51.0419848632813
 31
0
 62
 30 
  0
LINE
  8
Stift_0
 10
7.10865092760324
 20
51.0419848632813
 30
0
 11
7.15152592760325
 21
51.0994848632813
 31
0
 62
 30 
  0
LINE
  8
Stift_0
 10
7.15152592760325
 20
51.0994848632813
 30
0
 11
7.20742592760325
 21
51.1419848632813
 31
0
 62
 30 
  0
LINE
  8
Stift_0
 10
7.20742592760325
 20
51.1419848632813
 30
0
 11
7.27252592760324
 21
51.1694848632814
 31
0
 62
 30 
  0
LINE
  8
Stift_0
 10
7.27252592760324
 20
51.1694848632814
 30
0
 11
7.34237592760324
 21
51.1769848632813
 31
0
 62
 30 
  0
LINE
  8
Stift_0
 10
7.34237592760324
 20
51.1769848632813
 30
0
 11
7.41222592760325
 21
51.1694848632814
 31
0
 62
 30 
  0
LINE
  8
Stift_0
 10
7.41222592760325
 20
51.1694848632814
 30
0
 11
7.47732592760325
 21
51.1419848632813
 31
0
 62
 30 
  0
LINE
  8
Stift_0
 10
7.47732592760325
 20
51.1419848632813
 30
0
 11
7.53322592760324
 21
51.0994848632813
 31
0
 62
 30 
  0
LINE
  8
Stift_0
 10
7.53322592760324
 20
51.0994848632813
 30
0
 11
7.57612592760325
 21
51.0419848632813
 31
0
 62
 30 
  0
LINE
  8
Stift_0
 10
7.57612592760325
 20
51.0419848632813
 30
0
 11
7.60307592760324
 21
50.9769848632814
 31
0
 62
 30 
  0
LINE
  8
Stift_0
 10
7.60307592760324
 20
50.9769848632814
 30
0
 11
7.61227592760325
 21
50.9069848632813
 31
0
 62
 30 
  0
LINE
  8
Stift_0
 10
7.61227592760325
 20
50.9069848632813
 30
0
 11
7.60307592760324
 21
50.8369848632813
 31
0
 62
 30 
  0
LINE
  8
Stift_0
 10
7.60307592760324
 20
50.8369848632813
 30
0
 11
7.57612592760325
 21
50.7719848632813
 31
0
 62
 30 
  0
LINE
  8
Stift_0
 10
7.57612592760325
 20
50.7719848632813
 30
0
 11
7.53322592760324
 21
50.7169848632813
 31
0
 62
 30 
  0
LINE
  8
Stift_0
 10
7.53322592760324
 20
50.7169848632813
 30
0
 11
7.47732592760325
 21
50.6744848632812
 31
0
 62
 30 
  0
LINE
  8
Stift_0
 10
7.47732592760325
 20
50.6744848632812
 30
0
 11
7.41222592760325
 21
50.6469848632813
 31
0
 62
 30 
  0
LINE
  8
Stift_0
 10
7.41222592760325
 20
50.6469848632813
 30
0
 11
7.34237592760324
 21
50.6369848632812
 31
0
 62
 30 
  0
LINE
  8
Stift_0
 10
6.68407592760324
 20
47.3444848632813
 30
0
 11
6.61505092760325
 21
47.3544848632813
 31
0
 62
 30 
  0
LINE
  8
Stift_0
 10
6.61505092760325
 20
47.3544848632813
 30
0
 11
6.55075092760325
 21
47.3819848632813
 31
0
 62
 30 
  0
LINE
  8
Stift_0
 10
6.55075092760325
 20
47.3819848632813
 30
0
 11
6.49550092760324
 21
47.4244848632812
 31
0
 62
 30 
  0
LINE
  8
Stift_0
 10
6.49550092760324
 20
47.4244848632812
 30
0
 11
6.45312592760324
 21
47.4794848632813
 31
0
 62
 30 
  0
LINE
  8
Stift_0
 10
6.45312592760324
 20
47.4794848632813
 30
0
 11
6.42647592760325
 21
47.5444848632814
 31
0
 62
 30 
  0
LINE
  8
Stift_0
 10
6.42647592760325
 20
47.5444848632814
 30
0
 11
6.41740092760325
 21
47.6119848632812
 31
0
 62
 30 
  0
LINE
  8
Stift_0
 10
6.41740092760325
 20
47.6119848632812
 30
0
 11
6.42647592760325
 21
47.6819848632813
 31
0
 62
 30 
  0
LINE
  8
Stift_0
 10
6.42647592760325
 20
47.6819848632813
 30
0
 11
6.45312592760324
 21
47.7444848632813
 31
0
 62
 30 
  0
LINE
  8
Stift_0
 10
6.45312592760324
 20
47.7444848632813
 30
0
 11
6.49550092760324
 21
47.8019848632813
 31
0
 62
 30 
  0
LINE
  8
Stift_0
 10
6.49550092760324
 20
47.8019848632813
 30
0
 11
6.55075092760325
 21
47.8444848632813
 31
0
 62
 30 
  0
LINE
  8
Stift_0
 10
6.55075092760325
 20
47.8444848632813
 30
0
 11
6.61505092760325
 21
47.8694848632813
 31
0
 62
 30 
  0
LINE
  8
Stift_0
 10
6.61505092760325
 20
47.8694848632813
 30
0
 11
6.68407592760324
 21
47.8794848632813
 31
0
 62
 30 
  0
LINE
  8
Stift_0
 10
6.68407592760324
 20
47.8794848632813
 30
0
 11
6.75310092760325
 21
47.8694848632813
 31
0
 62
 30 
  0
LINE
  8
Stift_0
 10
6.75310092760325
 20
47.8694848632813
 30
0
 11
6.81742592760325
 21
47.8444848632813
 31
0
 62
 30 
  0
LINE
  8
Stift_0
 10
6.81742592760325
 20
47.8444848632813
 30
0
 11
6.87265092760325
 21
47.8019848632813
 31
0
 62
 30 
  0
LINE
  8
Stift_0
 10
6.87265092760325
 20
47.8019848632813
 30
0
 11
6.91502592760324
 21
47.7444848632813
 31
0
 62
 30 
  0
LINE
  8
Stift_0
 10
6.91502592760324
 20
47.7444848632813
 30
0
 11
6.94167592760325
 21
47.6819848632813
 31
0
 62
 30 
  0
LINE
  8
Stift_0
 10
6.94167592760325
 20
47.6819848632813
 30
0
 11
6.95075092760325
 21
47.6119848632812
 31
0
 62
 30 
  0
LINE
  8
Stift_0
 10
6.95075092760325
 20
47.6119848632812
 30
0
 11
6.94167592760325
 21
47.5444848632814
 31
0
 62
 30 
  0
LINE
  8
Stift_0
 10
6.94167592760325
 20
47.5444848632814
 30
0
 11
6.91502592760324
 21
47.4794848632813
 31
0
 62
 30 
  0
LINE
  8
Stift_0
 10
6.91502592760324
 20
47.4794848632813
 30
0
 11
6.87265092760325
 21
47.4244848632812
 31
0
 62
 30 
  0
LINE
  8
Stift_0
 10
6.87265092760325
 20
47.4244848632812
 30
0
 11
6.81742592760325
 21
47.3819848632813
 31
0
 62
 30 
  0
LINE
  8
Stift_0
 10
6.81742592760325
 20
47.3819848632813
 30
0
 11
6.75310092760325
 21
47.3544848632813
 31
0
 62
 30 
  0
LINE
  8
Stift_0
 10
6.75310092760325
 20
47.3544848632813
 30
0
 11
6.68407592760324
 21
47.3444848632813
 31
0
 62
 30 
  0
LINE
  8
Stift_0
 10
8.78535092760325
 20
51.9144848632814
 30
0
 11
8.70877592760325
 21
51.9244848632812
 31
0
 62
 30 
  0
LINE
  8
Stift_0
 10
8.70877592760325
 20
51.9244848632812
 30
0
 11
8.63740092760325
 21
51.9544848632813
 31
0
 62
 30 
  0
LINE
  8
Stift_0
 10
8.63740092760325
 20
51.9544848632813
 30
0
 11
8.57612592760325
 21
52.0019848632813
 31
0
 62
 30 
  0
LINE
  8
Stift_0
 10
8.57612592760325
 20
52.0019848632813
 30
0
 11
8.52910092760325
 21
52.0619848632813
 31
0
 62
 30 
  0
LINE
  8
Stift_0
 10
8.52910092760325
 20
52.0619848632813
 30
0
 11
8.49955092760325
 21
52.1344848632813
 31
0
 62
 30 
  0
LINE
  8
Stift_0
 10
8.49955092760325
 20
52.1344848632813
 30
0
 11
8.48947592760324
 21
52.2094848632813
 31
0
 62
 30 
  0
LINE
  8
Stift_0
 10
8.48947592760324
 20
52.2094848632813
 30
0
 11
8.49955092760325
 21
52.2869848632813
 31
0
 62
 30 
  0
LINE
  8
Stift_0
 10
8.49955092760325
 20
52.2869848632813
 30
0
 11
8.52910092760325
 21
52.3594848632813
 31
0
 62
 30 
  0
LINE
  8
Stift_0
 10
8.52910092760325
 20
52.3594848632813
 30
0
 11
8.57612592760325
 21
52.4194848632814
 31
0
 62
 30 
  0
LINE
  8
Stift_0
 10
8.57612592760325
 20
52.4194848632814
 30
0
 11
8.63740092760325
 21
52.4669848632813
 31
0
 62
 30 
  0
LINE
  8
Stift_0
 10
8.63740092760325
 20
52.4669848632813
 30
0
 11
8.70877592760325
 21
52.4969848632813
 31
0
 62
 30 
  0
LINE
  8
Stift_0
 10
8.70877592760325
 20
52.4969848632813
 30
0
 11
8.78535092760325
 21
52.5069848632813
 31
0
 62
 30 
  0
LINE
  8
Stift_0
 10
8.78535092760325
 20
52.5069848632813
 30
0
 11
8.86192592760325
 21
52.4969848632813
 31
0
 62
 30 
  0
LINE
  8
Stift_0
 10
8.86192592760325
 20
52.4969848632813
 30
0
 11
8.93327592760325
 21
52.4669848632813
 31
0
 62
 30 
  0
LINE
  8
Stift_0
 10
8.93327592760325
 20
52.4669848632813
 30
0
 11
8.99457592760325
 21
52.4194848632814
 31
0
 62
 30 
  0
LINE
  8
Stift_0
 10
8.99457592760325
 20
52.4194848632814
 30
0
 11
9.04157592760325
 21
52.3594848632813
 31
0
 62
 30 
  0
LINE
  8
Stift_0
 10
9.04157592760325
 20
52.3594848632813
 30
0
 11
9.07115092760325
 21
52.2869848632813
 31
0
 62
 30 
  0
LINE
  8
Stift_0
 10
9.07115092760325
 20
52.2869848632813
 30
0
 11
9.08122592760325
 21
52.2094848632813
 31
0
 62
 30 
  0
LINE
  8
Stift_0
 10
9.08122592760325
 20
52.2094848632813
 30
0
 11
9.07115092760325
 21
52.1344848632813
 31
0
 62
 30 
  0
LINE
  8
Stift_0
 10
9.07115092760325
 20
52.1344848632813
 30
0
 11
9.04157592760325
 21
52.0619848632813
 31
0
 62
 30 
  0
LINE
  8
Stift_0
 10
9.04157592760325
 20
52.0619848632813
 30
0
 11
8.99457592760325
 21
52.0019848632813
 31
0
 62
 30 
  0
LINE
  8
Stift_0
 10
8.99457592760325
 20
52.0019848632813
 30
0
 11
8.93327592760325
 21
51.9544848632813
 31
0
 62
 30 
  0
LINE
  8
Stift_0
 10
8.93327592760325
 20
51.9544848632813
 30
0
 11
8.86192592760325
 21
51.9244848632812
 31
0
 62
 30 
  0
LINE
  8
Stift_0
 10
8.86192592760325
 20
51.9244848632812
 30
0
 11
8.78535092760325
 21
51.9144848632814
 31
0
 62
 30 
  0
LINE
  8
Stift_0
 10
9.79357592760324
 20
52.9894848632813
 30
0
 11
9.72185092760325
 21
52.9994848632813
 31
0
 62
 30 
  0
LINE
  8
Stift_0
 10
9.72185092760325
 20
52.9994848632813
 30
0
 11
9.65502592760325
 21
53.0269848632813
 31
0
 62
 30 
  0
LINE
  8
Stift_0
 10
9.65502592760325
 20
53.0269848632813
 30
0
 11
9.59762592760325
 21
53.0694848632813
 31
0
 62
 30 
  0
LINE
  8
Stift_0
 10
9.59762592760325
 20
53.0694848632813
 30
0
 11
9.55357592760325
 21
53.1269848632813
 31
0
 62
 30 
  0
LINE
  8
Stift_0
 10
9.55357592760325
 20
53.1269848632813
 30
0
 11
9.52590092760325
 21
53.1944848632813
 31
0
 62
 30 
  0
LINE
  8
Stift_0
 10
9.52590092760325
 20
53.1944848632813
 30
0
 11
9.51645092760324
 21
53.2669848632813
 31
0
 62
 30 
  0
LINE
  8
Stift_0
 10
9.51645092760324
 20
53.2669848632813
 30
0
 11
9.52590092760325
 21
53.3369848632813
 31
0
 62
 30 
  0
LINE
  8
Stift_0
 10
9.52590092760325
 20
53.3369848632813
 30
0
 11
9.55357592760325
 21
53.4044848632813
 31
0
 62
 30 
  0
LINE
  8
Stift_0
 10
9.55357592760325
 20
53.4044848632813
 30
0
 11
9.59762592760325
 21
53.4619848632813
 31
0
 62
 30 
  0
LINE
  8
Stift_0
 10
9.59762592760325
 20
53.4619848632813
 30
0
 11
9.65502592760325
 21
53.5069848632813
 31
0
 62
 30 
  0
LINE
  8
Stift_0
 10
9.65502592760325
 20
53.5069848632813
 30
0
 11
9.72185092760325
 21
53.5344848632813
 31
0
 62
 30 
  0
LINE
  8
Stift_0
 10
9.72185092760325
 20
53.5344848632813
 30
0
 11
9.79357592760324
 21
53.5419848632813
 31
0
 62
 30 
  0
LINE
  8
Stift_0
 10
9.79357592760324
 20
53.5419848632813
 30
0
 11
9.86530092760325
 21
53.5344848632813
 31
0
 62
 30 
  0
LINE
  8
Stift_0
 10
9.86530092760325
 20
53.5344848632813
 30
0
 11
9.93215092760325
 21
53.5069848632813
 31
0
 62
 30 
  0
LINE
  8
Stift_0
 10
9.93215092760325
 20
53.5069848632813
 30
0
 11
9.98955092760325
 21
53.4619848632813
 31
0
 62
 30 
  0
LINE
  8
Stift_0
 10
9.98955092760325
 20
53.4619848632813
 30
0
 11
10.0335759276032
 21
53.4044848632813
 31
0
 62
 30 
  0
LINE
  8
Stift_0
 10
10.0335759276032
 20
53.4044848632813
 30
0
 11
10.0612759276032
 21
53.3369848632813
 31
0
 62
 30 
  0
LINE
  8
Stift_0
 10
10.0612759276032
 20
53.3369848632813
 30
0
 11
10.0707009276032
 21
53.2669848632813
 31
0
 62
 30 
  0
LINE
  8
Stift_0
 10
10.0707009276032
 20
53.2669848632813
 30
0
 11
10.0612759276032
 21
53.1944848632813
 31
0
 62
 30 
  0
LINE
  8
Stift_0
 10
10.0612759276032
 20
53.1944848632813
 30
0
 11
10.0335759276032
 21
53.1269848632813
 31
0
 62
 30 
  0
LINE
  8
Stift_0
 10
10.0335759276032
 20
53.1269848632813
 30
0
 11
9.98955092760325
 21
53.0694848632813
 31
0
 62
 30 
  0
LINE
  8
Stift_0
 10
9.98955092760325
 20
53.0694848632813
 30
0
 11
9.93215092760325
 21
53.0269848632813
 31
0
 62
 30 
  0
LINE
  8
Stift_0
 10
9.93215092760325
 20
53.0269848632813
 30
0
 11
9.86530092760325
 21
52.9994848632813
 31
0
 62
 30 
  0
LINE
  8
Stift_0
 10
9.86530092760325
 20
52.9994848632813
 30
0
 11
9.79357592760324
 21
52.9894848632813
 31
0
 62
 30 
  0
LINE
  8
Stift_0
 10
8.95495092760325
 20
54.1319848632813
 30
0
 11
8.93247592760325
 21
54.1344848632813
 31
0
 62
 30 
  0
LINE
  8
Stift_0
 10
8.93247592760325
 20
54.1344848632813
 30
0
 11
8.91152592760325
 21
54.1419848632813
 31
0
 62
 30 
  0
LINE
  8
Stift_0
 10
8.91152592760325
 20
54.1419848632813
 30
0
 11
8.89352592760325
 21
54.1569848632813
 31
0
 62
 30 
  0
LINE
  8
Stift_0
 10
8.89352592760325
 20
54.1569848632813
 30
0
 11
8.87972592760324
 21
54.1744848632812
 31
0
 62
 30 
  0
LINE
  8
Stift_0
 10
8.87972592760324
 20
54.1744848632812
 30
0
 11
8.87105092760325
 21
54.1944848632813
 31
0
 62
 30 
  0
LINE
  8
Stift_0
 10
8.87105092760325
 20
54.1944848632813
 30
0
 11
8.86807592760325
 21
54.2169848632813
 31
0
 62
 30 
  0
LINE
  8
Stift_0
 10
8.86807592760325
 20
54.2169848632813
 30
0
 11
8.87105092760325
 21
54.2394848632813
 31
0
 62
 30 
  0
LINE
  8
Stift_0
 10
8.87105092760325
 20
54.2394848632813
 30
0
 11
8.87972592760324
 21
54.2619848632812
 31
0
 62
 30 
  0
LINE
  8
Stift_0
 10
8.87972592760324
 20
54.2619848632812
 30
0
 11
8.89352592760325
 21
54.2794848632813
 31
0
 62
 30 
  0
LINE
  8
Stift_0
 10
8.89352592760325
 20
54.2794848632813
 30
0
 11
8.91152592760325
 21
54.2919848632813
 31
0
 62
 30 
  0
LINE
  8
Stift_0
 10
8.91152592760325
 20
54.2919848632813
 30
0
 11
8.93247592760325
 21
54.3019848632813
 31
0
 62
 30 
  0
LINE
  8
Stift_0
 10
8.93247592760325
 20
54.3019848632813
 30
0
 11
8.95495092760325
 21
54.3044848632812
 31
0
 62
 30 
  0
LINE
  8
Stift_0
 10
8.95495092760325
 20
54.3044848632812
 30
0
 11
8.97745092760325
 21
54.3019848632813
 31
0
 62
 30 
  0
LINE
  8
Stift_0
 10
8.97745092760325
 20
54.3019848632813
 30
0
 11
8.99840092760325
 21
54.2919848632813
 31
0
 62
 30 
  0
LINE
  8
Stift_0
 10
8.99840092760325
 20
54.2919848632813
 30
0
 11
9.01637592760325
 21
54.2794848632813
 31
0
 62
 30 
  0
LINE
  8
Stift_0
 10
9.01637592760325
 20
54.2794848632813
 30
0
 11
9.03020092760324
 21
54.2619848632812
 31
0
 62
 30 
  0
LINE
  8
Stift_0
 10
9.03020092760324
 20
54.2619848632812
 30
0
 11
9.03887592760324
 21
54.2394848632813
 31
0
 62
 30 
  0
LINE
  8
Stift_0
 10
9.03887592760324
 20
54.2394848632813
 30
0
 11
9.04182592760325
 21
54.2169848632813
 31
0
 62
 30 
  0
LINE
  8
Stift_0
 10
9.04182592760325
 20
54.2169848632813
 30
0
 11
9.03887592760324
 21
54.1944848632813
 31
0
 62
 30 
  0
LINE
  8
Stift_0
 10
9.03887592760324
 20
54.1944848632813
 30
0
 11
9.03020092760324
 21
54.1744848632812
 31
0
 62
 30 
  0
LINE
  8
Stift_0
 10
9.03020092760324
 20
54.1744848632812
 30
0
 11
9.01637592760325
 21
54.1569848632813
 31
0
 62
 30 
  0
LINE
  8
Stift_0
 10
9.01637592760325
 20
54.1569848632813
 30
0
 11
8.99840092760325
 21
54.1419848632813
 31
0
 62
 30 
  0
LINE
  8
Stift_0
 10
8.99840092760325
 20
54.1419848632813
 30
0
 11
8.97745092760325
 21
54.1344848632813
 31
0
 62
 30 
  0
LINE
  8
Stift_0
 10
8.97745092760325
 20
54.1344848632813
 30
0
 11
8.95495092760325
 21
54.1319848632813
 31
0
 62
 30 
  0
LINE
  8
Stift_0
 10
26.4906509276032
 20
10.5144848632813
 30
0
 11
26.3954009276032
 21
10.5269848632813
 31
0
 62
 30 
  0
LINE
  8
Stift_0
 10
26.3954009276032
 20
10.5269848632813
 30
0
 11
26.3066509276032
 21
10.5644848632813
 31
0
 62
 30 
  0
LINE
  8
Stift_0
 10
26.3066509276032
 20
10.5644848632813
 30
0
 11
26.2304009276032
 21
10.6219848632813
 31
0
 62
 30 
  0
LINE
  8
Stift_0
 10
26.2304009276032
 20
10.6219848632813
 30
0
 11
26.1719009276032
 21
10.6994848632812
 31
0
 62
 30 
  0
LINE
  8
Stift_0
 10
26.1719009276032
 20
10.6994848632812
 30
0
 11
26.1351509276032
 21
10.7869848632813
 31
0
 62
 30 
  0
LINE
  8
Stift_0
 10
26.1351509276032
 20
10.7869848632813
 30
0
 11
26.1226509276032
 21
10.8819848632813
 31
0
 62
 30 
  0
LINE
  8
Stift_0
 10
26.1226509276032
 20
10.8819848632813
 30
0
 11
26.1351509276032
 21
10.9769848632814
 31
0
 62
 30 
  0
LINE
  8
Stift_0
 10
26.1351509276032
 20
10.9769848632814
 30
0
 11
26.1719009276032
 21
11.0669848632813
 31
0
 62
 30 
  0
LINE
  8
Stift_0
 10
26.1719009276032
 20
11.0669848632813
 30
0
 11
26.2304009276032
 21
11.1419848632813
 31
0
 62
 30 
  0
LINE
  8
Stift_0
 10
26.2304009276032
 20
11.1419848632813
 30
0
 11
26.3066509276032
 21
11.2019848632813
 31
0
 62
 30 
  0
LINE
  8
Stift_0
 10
26.3066509276032
 20
11.2019848632813
 30
0
 11
26.3954009276032
 21
11.2369848632812
 31
0
 62
 30 
  0
LINE
  8
Stift_0
 10
26.3954009276032
 20
11.2369848632812
 30
0
 11
26.4906509276032
 21
11.2494848632813
 31
0
 62
 30 
  0
LINE
  8
Stift_0
 10
26.4906509276032
 20
11.2494848632813
 30
0
 11
26.5859009276032
 21
11.2369848632812
 31
0
 62
 30 
  0
LINE
  8
Stift_0
 10
26.5859009276032
 20
11.2369848632812
 30
0
 11
26.6746509276032
 21
11.2019848632813
 31
0
 62
 30 
  0
LINE
  8
Stift_0
 10
26.6746509276032
 20
11.2019848632813
 30
0
 11
26.7509009276032
 21
11.1419848632813
 31
0
 62
 30 
  0
LINE
  8
Stift_0
 10
26.7509009276032
 20
11.1419848632813
 30
0
 11
26.8094009276032
 21
11.0669848632813
 31
0
 62
 30 
  0
LINE
  8
Stift_0
 10
26.8094009276032
 20
11.0669848632813
 30
0
 11
26.8461509276032
 21
10.9769848632814
 31
0
 62
 30 
  0
LINE
  8
Stift_0
 10
26.8461509276032
 20
10.9769848632814
 30
0
 11
26.8586509276033
 21
10.8819848632813
 31
0
 62
 30 
  0
LINE
  8
Stift_0
 10
26.8586509276033
 20
10.8819848632813
 30
0
 11
26.8461509276032
 21
10.7869848632813
 31
0
 62
 30 
  0
LINE
  8
Stift_0
 10
26.8461509276032
 20
10.7869848632813
 30
0
 11
26.8094009276032
 21
10.6994848632812
 31
0
 62
 30 
  0
LINE
  8
Stift_0
 10
26.8094009276032
 20
10.6994848632812
 30
0
 11
26.7509009276032
 21
10.6219848632813
 31
0
 62
 30 
  0
LINE
  8
Stift_0
 10
26.7509009276032
 20
10.6219848632813
 30
0
 11
26.6746509276032
 21
10.5644848632813
 31
0
 62
 30 
  0
LINE
  8
Stift_0
 10
26.6746509276032
 20
10.5644848632813
 30
0
 11
26.5859009276032
 21
10.5269848632813
 31
0
 62
 30 
  0
LINE
  8
Stift_0
 10
26.5859009276032
 20
10.5269848632813
 30
0
 11
26.4906509276032
 21
10.5144848632813
 31
0
 62
 30 
  0
LINE
  8
Stift_0
 10
28.2434009276032
 20
11.2444848632813
 30
0
 11
28.1639009276032
 21
11.2544848632813
 31
0
 62
 30 
  0
LINE
  8
Stift_0
 10
28.1639009276032
 20
11.2544848632813
 30
0
 11
28.0899009276032
 21
11.2869848632813
 31
0
 62
 30 
  0
LINE
  8
Stift_0
 10
28.0899009276032
 20
11.2869848632813
 30
0
 11
28.0264009276032
 21
11.3344848632813
 31
0
 62
 30 
  0
LINE
  8
Stift_0
 10
28.0264009276032
 20
11.3344848632813
 30
0
 11
27.9776509276033
 21
11.3969848632813
 31
0
 62
 30 
  0
LINE
  8
Stift_0
 10
27.9776509276033
 20
11.3969848632813
 30
0
 11
27.9469009276032
 21
11.4719848632813
 31
0
 62
 30 
  0
LINE
  8
Stift_0
 10
27.9469009276032
 20
11.4719848632813
 30
0
 11
27.9364009276032
 21
11.5519848632813
 31
0
 62
 30 
  0
LINE
  8
Stift_0
 10
27.9364009276032
 20
11.5519848632813
 30
0
 11
27.9469009276032
 21
11.6319848632813
 31
0
 62
 30 
  0
LINE
  8
Stift_0
 10
27.9469009276032
 20
11.6319848632813
 30
0
 11
27.9776509276033
 21
11.7044848632813
 31
0
 62
 30 
  0
LINE
  8
Stift_0
 10
27.9776509276033
 20
11.7044848632813
 30
0
 11
28.0264009276032
 21
11.7694848632814
 31
0
 62
 30 
  0
LINE
  8
Stift_0
 10
28.0264009276032
 20
11.7694848632814
 30
0
 11
28.0899009276032
 21
11.8169848632813
 31
0
 62
 30 
  0
LINE
  8
Stift_0
 10
28.0899009276032
 20
11.8169848632813
 30
0
 11
28.1639009276032
 21
11.8469848632813
 31
0
 62
 30 
  0
LINE
  8
Stift_0
 10
28.1639009276032
 20
11.8469848632813
 30
0
 11
28.2434009276032
 21
11.8594848632813
 31
0
 62
 30 
  0
LINE
  8
Stift_0
 10
28.2434009276032
 20
11.8594848632813
 30
0
 11
28.3226509276032
 21
11.8469848632813
 31
0
 62
 30 
  0
LINE
  8
Stift_0
 10
28.3226509276032
 20
11.8469848632813
 30
0
 11
28.3966509276032
 21
11.8169848632813
 31
0
 62
 30 
  0
LINE
  8
Stift_0
 10
28.3966509276032
 20
11.8169848632813
 30
0
 11
28.4601509276032
 21
11.7694848632814
 31
0
 62
 30 
  0
LINE
  8
Stift_0
 10
28.4601509276032
 20
11.7694848632814
 30
0
 11
28.5089009276033
 21
11.7044848632813
 31
0
 62
 30 
  0
LINE
  8
Stift_0
 10
28.5089009276033
 20
11.7044848632813
 30
0
 11
28.5396509276032
 21
11.6319848632813
 31
0
 62
 30 
  0
LINE
  8
Stift_0
 10
28.5396509276032
 20
11.6319848632813
 30
0
 11
28.5501509276032
 21
11.5519848632813
 31
0
 62
 30 
  0
LINE
  8
Stift_0
 10
28.5501509276032
 20
11.5519848632813
 30
0
 11
28.5396509276032
 21
11.4719848632813
 31
0
 62
 30 
  0
LINE
  8
Stift_0
 10
28.5396509276032
 20
11.4719848632813
 30
0
 11
28.5089009276033
 21
11.3969848632813
 31
0
 62
 30 
  0
LINE
  8
Stift_0
 10
28.5089009276033
 20
11.3969848632813
 30
0
 11
28.4601509276032
 21
11.3344848632813
 31
0
 62
 30 
  0
LINE
  8
Stift_0
 10
28.4601509276032
 20
11.3344848632813
 30
0
 11
28.3966509276032
 21
11.2869848632813
 31
0
 62
 30 
  0
LINE
  8
Stift_0
 10
28.3966509276032
 20
11.2869848632813
 30
0
 11
28.3226509276032
 21
11.2544848632813
 31
0
 62
 30 
  0
LINE
  8
Stift_0
 10
28.3226509276032
 20
11.2544848632813
 30
0
 11
28.2434009276032
 21
11.2444848632813
 31
0
 62
 30 
  0
LINE
  8
Stift_0
 10
26.7261509276032
 20
12.2344848632813
 30
0
 11
26.6344009276032
 21
12.2444848632813
 31
0
 62
 30 
  0
LINE
  8
Stift_0
 10
26.6344009276032
 20
12.2444848632813
 30
0
 11
26.5489009276032
 21
12.2819848632813
 31
0
 62
 30 
  0
LINE
  8
Stift_0
 10
26.5489009276032
 20
12.2819848632813
 30
0
 11
26.4754009276032
 21
12.3369848632813
 31
0
 62
 30 
  0
LINE
  8
Stift_0
 10
26.4754009276032
 20
12.3369848632813
 30
0
 11
26.4191509276032
 21
12.4094848632813
 31
0
 62
 30 
  0
LINE
  8
Stift_0
 10
26.4191509276032
 20
12.4094848632813
 30
0
 11
26.3836509276032
 21
12.4969848632813
 31
0
 62
 30 
  0
LINE
  8
Stift_0
 10
26.3836509276032
 20
12.4969848632813
 30
0
 11
26.3716509276032
 21
12.5869848632813
 31
0
 62
 30 
  0
LINE
  8
Stift_0
 10
26.3716509276032
 20
12.5869848632813
 30
0
 11
26.3836509276032
 21
12.6794848632812
 31
0
 62
 30 
  0
LINE
  8
Stift_0
 10
26.3836509276032
 20
12.6794848632812
 30
0
 11
26.4191509276032
 21
12.7644848632813
 31
0
 62
 30 
  0
LINE
  8
Stift_0
 10
26.4191509276032
 20
12.7644848632813
 30
0
 11
26.4754009276032
 21
12.8394848632813
 31
0
 62
 30 
  0
LINE
  8
Stift_0
 10
26.4754009276032
 20
12.8394848632813
 30
0
 11
26.5489009276032
 21
12.8944848632814
 31
0
 62
 30 
  0
LINE
  8
Stift_0
 10
26.5489009276032
 20
12.8944848632814
 30
0
 11
26.6344009276032
 21
12.9294848632812
 31
0
 62
 30 
  0
LINE
  8
Stift_0
 10
26.6344009276032
 20
12.9294848632812
 30
0
 11
26.7261509276032
 21
12.9419848632813
 31
0
 62
 30 
  0
LINE
  8
Stift_0
 10
26.7261509276032
 20
12.9419848632813
 30
0
 11
26.8181509276032
 21
12.9294848632812
 31
0
 62
 30 
  0
LINE
  8
Stift_0
 10
26.8181509276032
 20
12.9294848632812
 30
0
 11
26.9036509276032
 21
12.8944848632814
 31
0
 62
 30 
  0
LINE
  8
Stift_0
 10
26.9036509276032
 20
12.8944848632814
 30
0
 11
26.9771509276032
 21
12.8394848632813
 31
0
 62
 30 
  0
LINE
  8
Stift_0
 10
26.9771509276032
 20
12.8394848632813
 30
0
 11
27.0334009276033
 21
12.7644848632813
 31
0
 62
 30 
  0
LINE
  8
Stift_0
 10
27.0334009276033
 20
12.7644848632813
 30
0
 11
27.0689009276032
 21
12.6794848632812
 31
0
 62
 30 
  0
LINE
  8
Stift_0
 10
27.0689009276032
 20
12.6794848632812
 30
0
 11
27.0809009276032
 21
12.5869848632813
 31
0
 62
 30 
  0
LINE
  8
Stift_0
 10
27.0809009276032
 20
12.5869848632813
 30
0
 11
27.0689009276032
 21
12.4969848632813
 31
0
 62
 30 
  0
LINE
  8
Stift_0
 10
27.0689009276032
 20
12.4969848632813
 30
0
 11
27.0334009276033
 21
12.4094848632813
 31
0
 62
 30 
  0
LINE
  8
Stift_0
 10
27.0334009276033
 20
12.4094848632813
 30
0
 11
26.9771509276032
 21
12.3369848632813
 31
0
 62
 30 
  0
LINE
  8
Stift_0
 10
26.9771509276032
 20
12.3369848632813
 30
0
 11
26.9036509276032
 21
12.2819848632813
 31
0
 62
 30 
  0
LINE
  8
Stift_0
 10
26.9036509276032
 20
12.2819848632813
 30
0
 11
26.8181509276032
 21
12.2444848632813
 31
0
 62
 30 
  0
LINE
  8
Stift_0
 10
26.8181509276032
 20
12.2444848632813
 30
0
 11
26.7261509276032
 21
12.2344848632813
 31
0
 62
 30 
  0
LINE
  8
Stift_0
 10
24.8322509276032
 20
11.6119848632812
 30
0
 11
24.7551509276032
 21
11.6219848632813
 31
0
 62
 30 
  0
LINE
  8
Stift_0
 10
24.7551509276032
 20
11.6219848632813
 30
0
 11
24.6832759276032
 21
11.6519848632813
 31
0
 62
 30 
  0
LINE
  8
Stift_0
 10
24.6832759276032
 20
11.6519848632813
 30
0
 11
24.6215509276032
 21
11.6994848632812
 31
0
 62
 30 
  0
LINE
  8
Stift_0
 10
24.6215509276032
 20
11.6994848632812
 30
0
 11
24.5742009276032
 21
11.7594848632813
 31
0
 62
 30 
  0
LINE
  8
Stift_0
 10
24.5742009276032
 20
11.7594848632813
 30
0
 11
24.5444509276032
 21
11.8319848632814
 31
0
 62
 30 
  0
LINE
  8
Stift_0
 10
24.5444509276032
 20
11.8319848632814
 30
0
 11
24.5343009276032
 21
11.9094848632813
 31
0
 62
 30 
  0
LINE
  8
Stift_0
 10
24.5343009276032
 20
11.9094848632813
 30
0
 11
24.5444509276032
 21
11.9869848632812
 31
0
 62
 30 
  0
LINE
  8
Stift_0
 10
24.5444509276032
 20
11.9869848632812
 30
0
 11
24.5742009276032
 21
12.0594848632813
 31
0
 62
 30 
  0
LINE
  8
Stift_0
 10
24.5742009276032
 20
12.0594848632813
 30
0
 11
24.6215509276032
 21
12.1194848632813
 31
0
 62
 30 
  0
LINE
  8
Stift_0
 10
24.6215509276032
 20
12.1194848632813
 30
0
 11
24.6832759276032
 21
12.1669848632813
 31
0
 62
 30 
  0
LINE
  8
Stift_0
 10
24.6832759276032
 20
12.1669848632813
 30
0
 11
24.7551509276032
 21
12.1969848632813
 31
0
 62
 30 
  0
LINE
  8
Stift_0
 10
24.7551509276032
 20
12.1969848632813
 30
0
 11
24.8322509276032
 21
12.2069848632814
 31
0
 62
 30 
  0
LINE
  8
Stift_0
 10
24.8322509276032
 20
12.2069848632814
 30
0
 11
24.9094009276032
 21
12.1969848632813
 31
0
 62
 30 
  0
LINE
  8
Stift_0
 10
24.9094009276032
 20
12.1969848632813
 30
0
 11
24.9811509276032
 21
12.1669848632813
 31
0
 62
 30 
  0
LINE
  8
Stift_0
 10
24.9811509276032
 20
12.1669848632813
 30
0
 11
25.0429009276032
 21
12.1194848632813
 31
0
 62
 30 
  0
LINE
  8
Stift_0
 10
25.0429009276032
 20
12.1194848632813
 30
0
 11
25.0904009276032
 21
12.0594848632813
 31
0
 62
 30 
  0
LINE
  8
Stift_0
 10
25.0904009276032
 20
12.0594848632813
 30
0
 11
25.1201509276032
 21
11.9869848632812
 31
0
 62
 30 
  0
LINE
  8
Stift_0
 10
25.1201509276032
 20
11.9869848632812
 30
0
 11
25.1301509276032
 21
11.9094848632813
 31
0
 62
 30 
  0
LINE
  8
Stift_0
 10
25.1301509276032
 20
11.9094848632813
 30
0
 11
25.1201509276032
 21
11.8319848632814
 31
0
 62
 30 
  0
LINE
  8
Stift_0
 10
25.1201509276032
 20
11.8319848632814
 30
0
 11
25.0904009276032
 21
11.7594848632813
 31
0
 62
 30 
  0
LINE
  8
Stift_0
 10
25.0904009276032
 20
11.7594848632813
 30
0
 11
25.0429009276032
 21
11.6994848632812
 31
0
 62
 30 
  0
LINE
  8
Stift_0
 10
25.0429009276032
 20
11.6994848632812
 30
0
 11
24.9811509276032
 21
11.6519848632813
 31
0
 62
 30 
  0
LINE
  8
Stift_0
 10
24.9811509276032
 20
11.6519848632813
 30
0
 11
24.9094009276032
 21
11.6219848632813
 31
0
 62
 30 
  0
LINE
  8
Stift_0
 10
24.9094009276032
 20
11.6219848632813
 30
0
 11
24.8322509276032
 21
11.6119848632812
 31
0
 62
 30 
  0
LINE
  8
Stift_0
 10
24.2386259276032
 20
14.7594848632813
 30
0
 11
24.1472259276032
 21
14.7719848632813
 31
0
 62
 30 
  0
LINE
  8
Stift_0
 10
24.1472259276032
 20
14.7719848632813
 30
0
 11
24.0620259276032
 21
14.8069848632813
 31
0
 62
 30 
  0
LINE
  8
Stift_0
 10
24.0620259276032
 20
14.8069848632813
 30
0
 11
23.9888759276032
 21
14.8644848632813
 31
0
 62
 30 
  0
LINE
  8
Stift_0
 10
23.9888759276032
 20
14.8644848632813
 30
0
 11
23.9327509276032
 21
14.9369848632813
 31
0
 62
 30 
  0
LINE
  8
Stift_0
 10
23.9327509276032
 20
14.9369848632813
 30
0
 11
23.8974759276032
 21
15.0219848632813
 31
0
 62
 30 
  0
LINE
  8
Stift_0
 10
23.8974759276032
 20
15.0219848632813
 30
0
 11
23.8854259276032
 21
15.1144848632813
 31
0
 62
 30 
  0
LINE
  8
Stift_0
 10
23.8854259276032
 20
15.1144848632813
 30
0
 11
23.8974759276032
 21
15.2044848632813
 31
0
 62
 30 
  0
LINE
  8
Stift_0
 10
23.8974759276032
 20
15.2044848632813
 30
0
 11
23.9327509276032
 21
15.2894848632814
 31
0
 62
 30 
  0
LINE
  8
Stift_0
 10
23.9327509276032
 20
15.2894848632814
 30
0
 11
23.9888759276032
 21
15.3619848632812
 31
0
 62
 30 
  0
LINE
  8
Stift_0
 10
23.9888759276032
 20
15.3619848632812
 30
0
 11
24.0620259276032
 21
15.4194848632814
 31
0
 62
 30 
  0
LINE
  8
Stift_0
 10
24.0620259276032
 20
15.4194848632814
 30
0
 11
24.1472259276032
 21
15.4544848632813
 31
0
 62
 30 
  0
LINE
  8
Stift_0
 10
24.1472259276032
 20
15.4544848632813
 30
0
 11
24.2386259276032
 21
15.4669848632813
 31
0
 62
 30 
  0
LINE
  8
Stift_0
 10
24.2386259276032
 20
15.4669848632813
 30
0
 11
24.3300509276032
 21
15.4544848632813
 31
0
 62
 30 
  0
LINE
  8
Stift_0
 10
24.3300509276032
 20
15.4544848632813
 30
0
 11
24.4152259276032
 21
15.4194848632814
 31
0
 62
 30 
  0
LINE
  8
Stift_0
 10
24.4152259276032
 20
15.4194848632814
 30
0
 11
24.4883759276032
 21
15.3619848632812
 31
0
 62
 30 
  0
LINE
  8
Stift_0
 10
24.4883759276032
 20
15.3619848632812
 30
0
 11
24.5445009276032
 21
15.2894848632814
 31
0
 62
 30 
  0
LINE
  8
Stift_0
 10
24.5445009276032
 20
15.2894848632814
 30
0
 11
24.5797759276032
 21
15.2044848632813
 31
0
 62
 30 
  0
LINE
  8
Stift_0
 10
24.5797759276032
 20
15.2044848632813
 30
0
 11
24.5918259276032
 21
15.1144848632813
 31
0
 62
 30 
  0
LINE
  8
Stift_0
 10
24.5918259276032
 20
15.1144848632813
 30
0
 11
24.5797759276032
 21
15.0219848632813
 31
0
 62
 30 
  0
LINE
  8
Stift_0
 10
24.5797759276032
 20
15.0219848632813
 30
0
 11
24.5445009276032
 21
14.9369848632813
 31
0
 62
 30 
  0
LINE
  8
Stift_0
 10
24.5445009276032
 20
14.9369848632813
 30
0
 11
24.4883759276032
 21
14.8644848632813
 31
0
 62
 30 
  0
LINE
  8
Stift_0
 10
24.4883759276032
 20
14.8644848632813
 30
0
 11
24.4152259276032
 21
14.8069848632813
 31
0
 62
 30 
  0
LINE
  8
Stift_0
 10
24.4152259276032
 20
14.8069848632813
 30
0
 11
24.3300509276032
 21
14.7719848632813
 31
0
 62
 30 
  0
LINE
  8
Stift_0
 10
24.3300509276032
 20
14.7719848632813
 30
0
 11
24.2386259276032
 21
14.7594848632813
 31
0
 62
 30 
  0
LINE
  8
Stift_0
 10
23.2963509276032
 20
12.1469848632813
 30
0
 11
23.2357759276032
 21
12.1544848632813
 31
0
 62
 30 
  0
LINE
  8
Stift_0
 10
23.2357759276032
 20
12.1544848632813
 30
0
 11
23.1793259276032
 21
12.1769848632813
 31
0
 62
 30 
  0
LINE
  8
Stift_0
 10
23.1793259276032
 20
12.1769848632813
 30
0
 11
23.1308509276032
 21
12.2144848632813
 31
0
 62
 30 
  0
LINE
  8
Stift_0
 10
23.1308509276032
 20
12.2144848632813
 30
0
 11
23.0936509276032
 21
12.2644848632813
 31
0
 62
 30 
  0
LINE
  8
Stift_0
 10
23.0936509276032
 20
12.2644848632813
 30
0
 11
23.0702759276032
 21
12.3194848632813
 31
0
 62
 30 
  0
LINE
  8
Stift_0
 10
23.0702759276032
 20
12.3194848632813
 30
0
 11
23.0623009276032
 21
12.3819848632813
 31
0
 62
 30 
  0
LINE
  8
Stift_0
 10
23.0623009276032
 20
12.3819848632813
 30
0
 11
23.0702759276032
 21
12.4419848632813
 31
0
 62
 30 
  0
LINE
  8
Stift_0
 10
23.0702759276032
 20
12.4419848632813
 30
0
 11
23.0936509276032
 21
12.4969848632813
 31
0
 62
 30 
  0
LINE
  8
Stift_0
 10
23.0936509276032
 20
12.4969848632813
 30
0
 11
23.1308509276032
 21
12.5469848632813
 31
0
 62
 30 
  0
LINE
  8
Stift_0
 10
23.1308509276032
 20
12.5469848632813
 30
0
 11
23.1793259276032
 21
12.5844848632813
 31
0
 62
 30 
  0
LINE
  8
Stift_0
 10
23.1793259276032
 20
12.5844848632813
 30
0
 11
23.2357759276032
 21
12.6069848632814
 31
0
 62
 30 
  0
LINE
  8
Stift_0
 10
23.2357759276032
 20
12.6069848632814
 30
0
 11
23.2963509276032
 21
12.6144848632813
 31
0
 62
 30 
  0
LINE
  8
Stift_0
 10
23.2963509276032
 20
12.6144848632813
 30
0
 11
23.3569259276032
 21
12.6069848632814
 31
0
 62
 30 
  0
LINE
  8
Stift_0
 10
23.3569259276032
 20
12.6069848632814
 30
0
 11
23.4133759276032
 21
12.5844848632813
 31
0
 62
 30 
  0
LINE
  8
Stift_0
 10
23.4133759276032
 20
12.5844848632813
 30
0
 11
23.4618509276032
 21
12.5469848632813
 31
0
 62
 30 
  0
LINE
  8
Stift_0
 10
23.4618509276032
 20
12.5469848632813
 30
0
 11
23.4990509276032
 21
12.4969848632813
 31
0
 62
 30 
  0
LINE
  8
Stift_0
 10
23.4990509276032
 20
12.4969848632813
 30
0
 11
23.5224259276032
 21
12.4419848632813
 31
0
 62
 30 
  0
LINE
  8
Stift_0
 10
23.5224259276032
 20
12.4419848632813
 30
0
 11
23.5304009276032
 21
12.3819848632813
 31
0
 62
 30 
  0
LINE
  8
Stift_0
 10
23.5304009276032
 20
12.3819848632813
 30
0
 11
23.5224259276032
 21
12.3194848632813
 31
0
 62
 30 
  0
LINE
  8
Stift_0
 10
23.5224259276032
 20
12.3194848632813
 30
0
 11
23.4990509276032
 21
12.2644848632813
 31
0
 62
 30 
  0
LINE
  8
Stift_0
 10
23.4990509276032
 20
12.2644848632813
 30
0
 11
23.4618509276032
 21
12.2144848632813
 31
0
 62
 30 
  0
LINE
  8
Stift_0
 10
23.4618509276032
 20
12.2144848632813
 30
0
 11
23.4133759276032
 21
12.1769848632813
 31
0
 62
 30 
  0
LINE
  8
Stift_0
 10
23.4133759276032
 20
12.1769848632813
 30
0
 11
23.3569259276032
 21
12.1544848632813
 31
0
 62
 30 
  0
LINE
  8
Stift_0
 10
23.3569259276032
 20
12.1544848632813
 30
0
 11
23.2963509276032
 21
12.1469848632813
 31
0
 62
 30 
  0
LINE
  8
Stift_0
 10
22.9006009276032
 20
10.6869848632813
 30
0
 11
22.8209759276032
 21
10.6994848632812
 31
0
 62
 30 
  0
LINE
  8
Stift_0
 10
22.8209759276032
 20
10.6994848632812
 30
0
 11
22.7467759276032
 21
10.7294848632813
 31
0
 62
 30 
  0
LINE
  8
Stift_0
 10
22.7467759276032
 20
10.7294848632813
 30
0
 11
22.6830509276032
 21
10.7769848632813
 31
0
 62
 30 
  0
LINE
  8
Stift_0
 10
22.6830509276032
 20
10.7769848632813
 30
0
 11
22.6341759276032
 21
10.8419848632813
 31
0
 62
 30 
  0
LINE
  8
Stift_0
 10
22.6341759276032
 20
10.8419848632813
 30
0
 11
22.6034259276032
 21
10.9169848632813
 31
0
 62
 30 
  0
LINE
  8
Stift_0
 10
22.6034259276032
 20
10.9169848632813
 30
0
 11
22.5929509276032
 21
10.9944848632813
 31
0
 62
 30 
  0
LINE
  8
Stift_0
 10
22.5929509276032
 20
10.9944848632813
 30
0
 11
22.6034259276032
 21
11.0744848632812
 31
0
 62
 30 
  0
LINE
  8
Stift_0
 10
22.6034259276032
 20
11.0744848632812
 30
0
 11
22.6341759276032
 21
11.1494848632813
 31
0
 62
 30 
  0
LINE
  8
Stift_0
 10
22.6341759276032
 20
11.1494848632813
 30
0
 11
22.6830509276032
 21
11.2119848632813
 31
0
 62
 30 
  0
LINE
  8
Stift_0
 10
22.6830509276032
 20
11.2119848632813
 30
0
 11
22.7467759276032
 21
11.2619848632812
 31
0
 62
 30 
  0
LINE
  8
Stift_0
 10
22.7467759276032
 20
11.2619848632812
 30
0
 11
22.8209759276032
 21
11.2919848632813
 31
0
 62
 30 
  0
LINE
  8
Stift_0
 10
22.8209759276032
 20
11.2919848632813
 30
0
 11
22.9006009276032
 21
11.3044848632812
 31
0
 62
 30 
  0
LINE
  8
Stift_0
 10
22.9006009276032
 20
11.3044848632812
 30
0
 11
22.9802259276032
 21
11.2919848632813
 31
0
 62
 30 
  0
LINE
  8
Stift_0
 10
22.9802259276032
 20
11.2919848632813
 30
0
 11
23.0544259276032
 21
11.2619848632812
 31
0
 62
 30 
  0
LINE
  8
Stift_0
 10
23.0544259276032
 20
11.2619848632812
 30
0
 11
23.1181509276032
 21
11.2119848632813
 31
0
 62
 30 
  0
LINE
  8
Stift_0
 10
23.1181509276032
 20
11.2119848632813
 30
0
 11
23.1670259276032
 21
11.1494848632813
 31
0
 62
 30 
  0
LINE
  8
Stift_0
 10
23.1670259276032
 20
11.1494848632813
 30
0
 11
23.1977509276032
 21
11.0744848632812
 31
0
 62
 30 
  0
LINE
  8
Stift_0
 10
23.1977509276032
 20
11.0744848632812
 30
0
 11
23.2082509276032
 21
10.9944848632813
 31
0
 62
 30 
  0
LINE
  8
Stift_0
 10
23.2082509276032
 20
10.9944848632813
 30
0
 11
23.1977509276032
 21
10.9169848632813
 31
0
 62
 30 
  0
LINE
  8
Stift_0
 10
23.1977509276032
 20
10.9169848632813
 30
0
 11
23.1670259276032
 21
10.8419848632813
 31
0
 62
 30 
  0
LINE
  8
Stift_0
 10
23.1670259276032
 20
10.8419848632813
 30
0
 11
23.1181509276032
 21
10.7769848632813
 31
0
 62
 30 
  0
LINE
  8
Stift_0
 10
23.1181509276032
 20
10.7769848632813
 30
0
 11
23.0544259276032
 21
10.7294848632813
 31
0
 62
 30 
  0
LINE
  8
Stift_0
 10
23.0544259276032
 20
10.7294848632813
 30
0
 11
22.9802259276032
 21
10.6994848632812
 31
0
 62
 30 
  0
LINE
  8
Stift_0
 10
22.9802259276032
 20
10.6994848632812
 30
0
 11
22.9006009276032
 21
10.6869848632813
 31
0
 62
 30 
  0
LINE
  8
Stift_0
 10
22.1467759276032
 20
9.47698486328136
 30
0
 11
22.0756759276032
 21
9.48698486328124
 31
0
 62
 30 
  0
LINE
  8
Stift_0
 10
22.0756759276032
 20
9.48698486328124
 30
0
 11
22.0094259276032
 21
9.51448486328127
 31
0
 62
 30 
  0
LINE
  8
Stift_0
 10
22.0094259276032
 20
9.51448486328127
 30
0
 11
21.9525259276032
 21
9.55698486328129
 31
0
 62
 30 
  0
LINE
  8
Stift_0
 10
21.9525259276032
 20
9.55698486328129
 30
0
 11
21.9088759276032
 21
9.61448486328129
 31
0
 62
 30 
  0
LINE
  8
Stift_0
 10
21.9088759276032
 20
9.61448486328129
 30
0
 11
21.8814259276032
 21
9.67948486328123
 31
0
 62
 30 
  0
LINE
  8
Stift_0
 10
21.8814259276032
 20
9.67948486328123
 30
0
 11
21.8720759276032
 21
9.75198486328134
 31
0
 62
 30 
  0
LINE
  8
Stift_0
 10
21.8720759276032
 20
9.75198486328134
 30
0
 11
21.8814259276032
 21
9.82198486328127
 31
0
 62
 30 
  0
LINE
  8
Stift_0
 10
21.8814259276032
 20
9.82198486328127
 30
0
 11
21.9088759276032
 21
9.88948486328127
 31
0
 62
 30 
  0
LINE
  8
Stift_0
 10
21.9088759276032
 20
9.88948486328127
 30
0
 11
21.9525259276032
 21
9.94698486328127
 31
0
 62
 30 
  0
LINE
  8
Stift_0
 10
21.9525259276032
 20
9.94698486328127
 30
0
 11
22.0094259276032
 21
9.98948486328129
 31
0
 62
 30 
  0
LINE
  8
Stift_0
 10
22.0094259276032
 20
9.98948486328129
 30
0
 11
22.0756759276032
 21
10.0169848632813
 31
0
 62
 30 
  0
LINE
  8
Stift_0
 10
22.0756759276032
 20
10.0169848632813
 30
0
 11
22.1467759276032
 21
10.0269848632813
 31
0
 62
 30 
  0
LINE
  8
Stift_0
 10
22.1467759276032
 20
10.0269848632813
 30
0
 11
22.2178759276032
 21
10.0169848632813
 31
0
 62
 30 
  0
LINE
  8
Stift_0
 10
22.2178759276032
 20
10.0169848632813
 30
0
 11
22.2841509276032
 21
9.98948486328129
 31
0
 62
 30 
  0
LINE
  8
Stift_0
 10
22.2841509276032
 20
9.98948486328129
 30
0
 11
22.3410259276032
 21
9.94698486328127
 31
0
 62
 30 
  0
LINE
  8
Stift_0
 10
22.3410259276032
 20
9.94698486328127
 30
0
 11
22.3847009276032
 21
9.88948486328127
 31
0
 62
 30 
  0
LINE
  8
Stift_0
 10
22.3847009276032
 20
9.88948486328127
 30
0
 11
22.4121259276032
 21
9.82198486328127
 31
0
 62
 30 
  0
LINE
  8
Stift_0
 10
22.4121259276032
 20
9.82198486328127
 30
0
 11
22.4215009276032
 21
9.75198486328134
 31
0
 62
 30 
  0
LINE
  8
Stift_0
 10
22.4215009276032
 20
9.75198486328134
 30
0
 11
22.4121259276032
 21
9.67948486328123
 31
0
 62
 30 
  0
LINE
  8
Stift_0
 10
22.4121259276032
 20
9.67948486328123
 30
0
 11
22.3847009276032
 21
9.61448486328129
 31
0
 62
 30 
  0
LINE
  8
Stift_0
 10
22.3847009276032
 20
9.61448486328129
 30
0
 11
22.3410259276032
 21
9.55698486328129
 31
0
 62
 30 
  0
LINE
  8
Stift_0
 10
22.3410259276032
 20
9.55698486328129
 30
0
 11
22.2841509276032
 21
9.51448486328127
 31
0
 62
 30 
  0
LINE
  8
Stift_0
 10
22.2841509276032
 20
9.51448486328127
 30
0
 11
22.2178759276032
 21
9.48698486328124
 31
0
 62
 30 
  0
LINE
  8
Stift_0
 10
22.2178759276032
 20
9.48698486328124
 30
0
 11
22.1467759276032
 21
9.47698486328136
 31
0
 62
 30 
  0
LINE
  8
Stift_0
 10
24.4365009276032
 20
9.86948486328129
 30
0
 11
24.3282009276032
 21
9.88448486328127
 31
0
 62
 30 
  0
LINE
  8
Stift_0
 10
24.3282009276032
 20
9.88448486328127
 30
0
 11
24.2273009276032
 21
9.92698486328129
 31
0
 62
 30 
  0
LINE
  8
Stift_0
 10
24.2273009276032
 20
9.92698486328129
 30
0
 11
24.1406259276032
 21
9.99198486328123
 31
0
 62
 30 
  0
LINE
  8
Stift_0
 10
24.1406259276032
 20
9.99198486328123
 30
0
 11
24.0741259276032
 21
10.0794848632813
 31
0
 62
 30 
  0
LINE
  8
Stift_0
 10
24.0741259276032
 20
10.0794848632813
 30
0
 11
24.0323259276032
 21
10.1794848632812
 31
0
 62
 30 
  0
LINE
  8
Stift_0
 10
24.0323259276032
 20
10.1794848632812
 30
0
 11
24.0180759276032
 21
10.2894848632814
 31
0
 62
 30 
  0
LINE
  8
Stift_0
 10
24.0180759276032
 20
10.2894848632814
 30
0
 11
24.0323259276032
 21
10.3969848632813
 31
0
 62
 30 
  0
LINE
  8
Stift_0
 10
24.0323259276032
 20
10.3969848632813
 30
0
 11
24.0741259276032
 21
10.4969848632813
 31
0
 62
 30 
  0
LINE
  8
Stift_0
 10
24.0741259276032
 20
10.4969848632813
 30
0
 11
24.1406259276032
 21
10.5844848632813
 31
0
 62
 30 
  0
LINE
  8
Stift_0
 10
24.1406259276032
 20
10.5844848632813
 30
0
 11
24.2273009276032
 21
10.6519848632813
 31
0
 62
 30 
  0
LINE
  8
Stift_0
 10
24.2273009276032
 20
10.6519848632813
 30
0
 11
24.3282009276032
 21
10.6919848632813
 31
0
 62
 30 
  0
LINE
  8
Stift_0
 10
24.3282009276032
 20
10.6919848632813
 30
0
 11
24.4365009276032
 21
10.7069848632814
 31
0
 62
 30 
  0
LINE
  8
Stift_0
 10
24.4365009276032
 20
10.7069848632814
 30
0
 11
24.5448009276032
 21
10.6919848632813
 31
0
 62
 30 
  0
LINE
  8
Stift_0
 10
24.5448009276032
 20
10.6919848632813
 30
0
 11
24.6457259276032
 21
10.6519848632813
 31
0
 62
 30 
  0
LINE
  8
Stift_0
 10
24.6457259276032
 20
10.6519848632813
 30
0
 11
24.7323759276032
 21
10.5844848632813
 31
0
 62
 30 
  0
LINE
  8
Stift_0
 10
24.7323759276032
 20
10.5844848632813
 30
0
 11
24.7988759276032
 21
10.4969848632813
 31
0
 62
 30 
  0
LINE
  8
Stift_0
 10
24.7988759276032
 20
10.4969848632813
 30
0
 11
24.8406759276032
 21
10.3969848632813
 31
0
 62
 30 
  0
LINE
  8
Stift_0
 10
24.8406759276032
 20
10.3969848632813
 30
0
 11
24.8549259276032
 21
10.2894848632814
 31
0
 62
 30 
  0
LINE
  8
Stift_0
 10
24.8549259276032
 20
10.2894848632814
 30
0
 11
24.8406759276032
 21
10.1794848632812
 31
0
 62
 30 
  0
LINE
  8
Stift_0
 10
24.8406759276032
 20
10.1794848632812
 30
0
 11
24.7988759276032
 21
10.0794848632813
 31
0
 62
 30 
  0
LINE
  8
Stift_0
 10
24.7988759276032
 20
10.0794848632813
 30
0
 11
24.7323759276032
 21
9.99198486328123
 31
0
 62
 30 
  0
LINE
  8
Stift_0
 10
24.7323759276032
 20
9.99198486328123
 30
0
 11
24.6457259276032
 21
9.92698486328129
 31
0
 62
 30 
  0
LINE
  8
Stift_0
 10
24.6457259276032
 20
9.92698486328129
 30
0
 11
24.5448009276032
 21
9.88448486328127
 31
0
 62
 30 
  0
LINE
  8
Stift_0
 10
24.5448009276032
 20
9.88448486328127
 30
0
 11
24.4365009276032
 21
9.86948486328129
 31
0
 62
 30 
  0
LINE
  8
Stift_0
 10
12.9973009276032
 20
14.0294848632813
 30
0
 11
12.9239509276032
 21
14.0394848632814
 31
0
 62
 30 
  0
LINE
  8
Stift_0
 10
12.9239509276032
 20
14.0394848632814
 30
0
 11
12.8555759276032
 21
14.0669848632813
 31
0
 62
 30 
  0
LINE
  8
Stift_0
 10
12.8555759276032
 20
14.0669848632813
 30
0
 11
12.7968759276032
 21
14.1119848632812
 31
0
 62
 30 
  0
LINE
  8
Stift_0
 10
12.7968759276032
 20
14.1119848632812
 30
0
 11
12.7518259276032
 21
14.1694848632814
 31
0
 62
 30 
  0
LINE
  8
Stift_0
 10
12.7518259276032
 20
14.1694848632814
 30
0
 11
12.7235009276032
 21
14.2394848632813
 31
0
 62
 30 
  0
LINE
  8
Stift_0
 10
12.7235009276032
 20
14.2394848632813
 30
0
 11
12.7138509276032
 21
14.3119848632813
 31
0
 62
 30 
  0
LINE
  8
Stift_0
 10
12.7138509276032
 20
14.3119848632813
 30
0
 11
12.7235009276032
 21
14.3869848632812
 31
0
 62
 30 
  0
LINE
  8
Stift_0
 10
12.7235009276032
 20
14.3869848632812
 30
0
 11
12.7518259276032
 21
14.4544848632813
 31
0
 62
 30 
  0
LINE
  8
Stift_0
 10
12.7518259276032
 20
14.4544848632813
 30
0
 11
12.7968759276032
 21
14.5119848632812
 31
0
 62
 30 
  0
LINE
  8
Stift_0
 10
12.7968759276032
 20
14.5119848632812
 30
0
 11
12.8555759276032
 21
14.5569848632813
 31
0
 62
 30 
  0
LINE
  8
Stift_0
 10
12.8555759276032
 20
14.5569848632813
 30
0
 11
12.9239509276032
 21
14.5869848632813
 31
0
 62
 30 
  0
LINE
  8
Stift_0
 10
12.9239509276032
 20
14.5869848632813
 30
0
 11
12.9973009276032
 21
14.5969848632813
 31
0
 62
 30 
  0
LINE
  8
Stift_0
 10
12.9973009276032
 20
14.5969848632813
 30
0
 11
13.0706759276032
 21
14.5869848632813
 31
0
 62
 30 
  0
LINE
  8
Stift_0
 10
13.0706759276032
 20
14.5869848632813
 30
0
 11
13.1390509276032
 21
14.5569848632813
 31
0
 62
 30 
  0
LINE
  8
Stift_0
 10
13.1390509276032
 20
14.5569848632813
 30
0
 11
13.1977509276032
 21
14.5119848632812
 31
0
 62
 30 
  0
LINE
  8
Stift_0
 10
13.1977509276032
 20
14.5119848632812
 30
0
 11
13.2428009276032
 21
14.4544848632813
 31
0
 62
 30 
  0
LINE
  8
Stift_0
 10
13.2428009276032
 20
14.4544848632813
 30
0
 11
13.2711259276032
 21
14.3869848632812
 31
0
 62
 30 
  0
LINE
  8
Stift_0
 10
13.2711259276032
 20
14.3869848632812
 30
0
 11
13.2807759276032
 21
14.3119848632813
 31
0
 62
 30 
  0
LINE
  8
Stift_0
 10
13.2807759276032
 20
14.3119848632813
 30
0
 11
13.2711259276032
 21
14.2394848632813
 31
0
 62
 30 
  0
LINE
  8
Stift_0
 10
13.2711259276032
 20
14.2394848632813
 30
0
 11
13.2428009276032
 21
14.1694848632814
 31
0
 62
 30 
  0
LINE
  8
Stift_0
 10
13.2428009276032
 20
14.1694848632814
 30
0
 11
13.1977509276032
 21
14.1119848632812
 31
0
 62
 30 
  0
LINE
  8
Stift_0
 10
13.1977509276032
 20
14.1119848632812
 30
0
 11
13.1390509276032
 21
14.0669848632813
 31
0
 62
 30 
  0
LINE
  8
Stift_0
 10
13.1390509276032
 20
14.0669848632813
 30
0
 11
13.0706759276032
 21
14.0394848632814
 31
0
 62
 30 
  0
LINE
  8
Stift_0
 10
13.0706759276032
 20
14.0394848632814
 30
0
 11
12.9973009276032
 21
14.0294848632813
 31
0
 62
 30 
  0
LINE
  8
Stift_0
 10
10.9997009276032
 20
15.3119848632813
 30
0
 11
10.9340759276032
 21
15.3194848632813
 31
0
 62
 30 
  0
LINE
  8
Stift_0
 10
10.9340759276032
 20
15.3194848632813
 30
0
 11
10.8729259276032
 21
15.3469848632813
 31
0
 62
 30 
  0
LINE
  8
Stift_0
 10
10.8729259276032
 20
15.3469848632813
 30
0
 11
10.8204009276032
 21
15.3869848632812
 31
0
 62
 30 
  0
LINE
  8
Stift_0
 10
10.8204009276032
 20
15.3869848632812
 30
0
 11
10.7801259276032
 21
15.4394848632813
 31
0
 62
 30 
  0
LINE
  8
Stift_0
 10
10.7801259276032
 20
15.4394848632813
 30
0
 11
10.7548009276032
 21
15.4994848632813
 31
0
 62
 30 
  0
LINE
  8
Stift_0
 10
10.7548009276032
 20
15.4994848632813
 30
0
 11
10.7461509276032
 21
15.5644848632813
 31
0
 62
 30 
  0
LINE
  8
Stift_0
 10
10.7461509276032
 20
15.5644848632813
 30
0
 11
10.7548009276032
 21
15.6319848632813
 31
0
 62
 30 
  0
LINE
  8
Stift_0
 10
10.7548009276032
 20
15.6319848632813
 30
0
 11
10.7801259276032
 21
15.6919848632813
 31
0
 62
 30 
  0
LINE
  8
Stift_0
 10
10.7801259276032
 20
15.6919848632813
 30
0
 11
10.8204009276032
 21
15.7444848632813
 31
0
 62
 30 
  0
LINE
  8
Stift_0
 10
10.8204009276032
 20
15.7444848632813
 30
0
 11
10.8729259276032
 21
15.7844848632813
 31
0
 62
 30 
  0
LINE
  8
Stift_0
 10
10.8729259276032
 20
15.7844848632813
 30
0
 11
10.9340759276032
 21
15.8094848632813
 31
0
 62
 30 
  0
LINE
  8
Stift_0
 10
10.9340759276032
 20
15.8094848632813
 30
0
 11
10.9997009276032
 21
15.8194848632813
 31
0
 62
 30 
  0
LINE
  8
Stift_0
 10
10.9997009276032
 20
15.8194848632813
 30
0
 11
11.0653009276032
 21
15.8094848632813
 31
0
 62
 30 
  0
LINE
  8
Stift_0
 10
11.0653009276032
 20
15.8094848632813
 30
0
 11
11.1264509276032
 21
15.7844848632813
 31
0
 62
 30 
  0
LINE
  8
Stift_0
 10
11.1264509276032
 20
15.7844848632813
 30
0
 11
11.1789759276032
 21
15.7444848632813
 31
0
 62
 30 
  0
LINE
  8
Stift_0
 10
11.1789759276032
 20
15.7444848632813
 30
0
 11
11.2192509276032
 21
15.6919848632813
 31
0
 62
 30 
  0
LINE
  8
Stift_0
 10
11.2192509276032
 20
15.6919848632813
 30
0
 11
11.2446009276032
 21
15.6319848632813
 31
0
 62
 30 
  0
LINE
  8
Stift_0
 10
11.2446009276032
 20
15.6319848632813
 30
0
 11
11.2532259276032
 21
15.5644848632813
 31
0
 62
 30 
  0
LINE
  8
Stift_0
 10
11.2532259276032
 20
15.5644848632813
 30
0
 11
11.2446009276032
 21
15.4994848632813
 31
0
 62
 30 
  0
LINE
  8
Stift_0
 10
11.2446009276032
 20
15.4994848632813
 30
0
 11
11.2192509276032
 21
15.4394848632813
 31
0
 62
 30 
  0
LINE
  8
Stift_0
 10
11.2192509276032
 20
15.4394848632813
 30
0
 11
11.1789759276032
 21
15.3869848632812
 31
0
 62
 30 
  0
LINE
  8
Stift_0
 10
11.1789759276032
 20
15.3869848632812
 30
0
 11
11.1264509276032
 21
15.3469848632813
 31
0
 62
 30 
  0
LINE
  8
Stift_0
 10
11.1264509276032
 20
15.3469848632813
 30
0
 11
11.0653009276032
 21
15.3194848632813
 31
0
 62
 30 
  0
LINE
  8
Stift_0
 10
11.0653009276032
 20
15.3194848632813
 30
0
 11
10.9997009276032
 21
15.3119848632813
 31
0
 62
 30 
  0
LINE
  8
Stift_0
 10
9.04917592760325
 20
16.8994848632813
 30
0
 11
8.97260092760324
 21
16.9094848632813
 31
0
 62
 30 
  0
LINE
  8
Stift_0
 10
8.97260092760324
 20
16.9094848632813
 30
0
 11
8.90125092760325
 21
16.9394848632813
 31
0
 62
 30 
  0
LINE
  8
Stift_0
 10
8.90125092760325
 20
16.9394848632813
 30
0
 11
8.83997592760324
 21
16.9869848632812
 31
0
 62
 30 
  0
LINE
  8
Stift_0
 10
8.83997592760324
 20
16.9869848632812
 30
0
 11
8.79295092760325
 21
17.0469848632813
 31
0
 62
 30 
  0
LINE
  8
Stift_0
 10
8.79295092760325
 20
17.0469848632813
 30
0
 11
8.76340092760324
 21
17.1194848632813
 31
0
 62
 30 
  0
LINE
  8
Stift_0
 10
8.76340092760324
 20
17.1194848632813
 30
0
 11
8.75330092760325
 21
17.1969848632813
 31
0
 62
 30 
  0
LINE
  8
Stift_0
 10
8.75330092760325
 20
17.1969848632813
 30
0
 11
8.76340092760324
 21
17.2719848632813
 31
0
 62
 30 
  0
LINE
  8
Stift_0
 10
8.76340092760324
 20
17.2719848632813
 30
0
 11
8.79295092760325
 21
17.3444848632813
 31
0
 62
 30 
  0
LINE
  8
Stift_0
 10
8.79295092760325
 20
17.3444848632813
 30
0
 11
8.83997592760324
 21
17.4044848632813
 31
0
 62
 30 
  0
LINE
  8
Stift_0
 10
8.83997592760324
 20
17.4044848632813
 30
0
 11
8.90125092760325
 21
17.4519848632813
 31
0
 62
 30 
  0
LINE
  8
Stift_0
 10
8.90125092760325
 20
17.4519848632813
 30
0
 11
8.97260092760324
 21
17.4819848632814
 31
0
 62
 30 
  0
LINE
  8
Stift_0
 10
8.97260092760324
 20
17.4819848632814
 30
0
 11
9.04917592760325
 21
17.4919848632812
 31
0
 62
 30 
  0
LINE
  8
Stift_0
 10
9.04917592760325
 20
17.4919848632812
 30
0
 11
9.12577592760324
 21
17.4819848632814
 31
0
 62
 30 
  0
LINE
  8
Stift_0
 10
9.12577592760324
 20
17.4819848632814
 30
0
 11
9.19712592760324
 21
17.4519848632813
 31
0
 62
 30 
  0
LINE
  8
Stift_0
 10
9.19712592760324
 20
17.4519848632813
 30
0
 11
9.25840092760325
 21
17.4044848632813
 31
0
 62
 30 
  0
LINE
  8
Stift_0
 10
9.25840092760325
 20
17.4044848632813
 30
0
 11
9.30542592760325
 21
17.3444848632813
 31
0
 62
 30 
  0
LINE
  8
Stift_0
 10
9.30542592760325
 20
17.3444848632813
 30
0
 11
9.33497592760324
 21
17.2719848632813
 31
0
 62
 30 
  0
LINE
  8
Stift_0
 10
9.33497592760324
 20
17.2719848632813
 30
0
 11
9.34505092760324
 21
17.1969848632813
 31
0
 62
 30 
  0
LINE
  8
Stift_0
 10
9.34505092760324
 20
17.1969848632813
 30
0
 11
9.33497592760324
 21
17.1194848632813
 31
0
 62
 30 
  0
LINE
  8
Stift_0
 10
9.33497592760324
 20
17.1194848632813
 30
0
 11
9.30542592760325
 21
17.0469848632813
 31
0
 62
 30 
  0
LINE
  8
Stift_0
 10
9.30542592760325
 20
17.0469848632813
 30
0
 11
9.25840092760325
 21
16.9869848632812
 31
0
 62
 30 
  0
LINE
  8
Stift_0
 10
9.25840092760325
 20
16.9869848632812
 30
0
 11
9.19712592760324
 21
16.9394848632813
 31
0
 62
 30 
  0
LINE
  8
Stift_0
 10
9.19712592760324
 20
16.9394848632813
 30
0
 11
9.12575092760325
 21
16.9094848632813
 31
0
 62
 30 
  0
LINE
  8
Stift_0
 10
9.12575092760325
 20
16.9094848632813
 30
0
 11
9.04917592760325
 21
16.8994848632813
 31
0
 62
 30 
  0
LINE
  8
Stift_0
 10
6.18467592760325
 20
16.6944848632813
 30
0
 11
6.08187592760325
 21
16.7094848632813
 31
0
 62
 30 
  0
LINE
  8
Stift_0
 10
6.08187592760325
 20
16.7094848632813
 30
0
 11
5.98607592760325
 21
16.7469848632813
 31
0
 62
 30 
  0
LINE
  8
Stift_0
 10
5.98607592760325
 20
16.7469848632813
 30
0
 11
5.90380092760325
 21
16.8119848632813
 31
0
 62
 30 
  0
LINE
  8
Stift_0
 10
5.90380092760325
 20
16.8119848632813
 30
0
 11
5.84067592760324
 21
16.8944848632814
 31
0
 62
 30 
  0
LINE
  8
Stift_0
 10
5.84067592760324
 20
16.8944848632814
 30
0
 11
5.80100092760325
 21
16.9894848632813
 31
0
 62
 30 
  0
LINE
  8
Stift_0
 10
5.80100092760325
 20
16.9894848632813
 30
0
 11
5.78747592760325
 21
17.0919848632813
 31
0
 62
 30 
  0
LINE
  8
Stift_0
 10
5.78747592760325
 20
17.0919848632813
 30
0
 11
5.80100092760325
 21
17.1944848632813
 31
0
 62
 30 
  0
LINE
  8
Stift_0
 10
5.80100092760325
 20
17.1944848632813
 30
0
 11
5.84067592760324
 21
17.2894848632814
 31
0
 62
 30 
  0
LINE
  8
Stift_0
 10
5.84067592760324
 20
17.2894848632814
 30
0
 11
5.90380092760325
 21
17.3719848632813
 31
0
 62
 30 
  0
LINE
  8
Stift_0
 10
5.90380092760325
 20
17.3719848632813
 30
0
 11
5.98607592760325
 21
17.4369848632813
 31
0
 62
 30 
  0
LINE
  8
Stift_0
 10
5.98607592760325
 20
17.4369848632813
 30
0
 11
6.08187592760325
 21
17.4769848632814
 31
0
 62
 30 
  0
LINE
  8
Stift_0
 10
6.08187592760325
 20
17.4769848632814
 30
0
 11
6.18467592760325
 21
17.4894848632813
 31
0
 62
 30 
  0
LINE
  8
Stift_0
 10
6.18467592760325
 20
17.4894848632813
 30
0
 11
6.28747592760325
 21
17.4769848632814
 31
0
 62
 30 
  0
LINE
  8
Stift_0
 10
6.28747592760325
 20
17.4769848632814
 30
0
 11
6.38327592760325
 21
17.4369848632813
 31
0
 62
 30 
  0
LINE
  8
Stift_0
 10
6.38327592760325
 20
17.4369848632813
 30
0
 11
6.46555092760325
 21
17.3719848632813
 31
0
 62
 30 
  0
LINE
  8
Stift_0
 10
6.46555092760325
 20
17.3719848632813
 30
0
 11
6.52867592760324
 21
17.2894848632814
 31
0
 62
 30 
  0
LINE
  8
Stift_0
 10
6.52867592760324
 20
17.2894848632814
 30
0
 11
6.56835092760325
 21
17.1944848632813
 31
0
 62
 30 
  0
LINE
  8
Stift_0
 10
6.56835092760325
 20
17.1944848632813
 30
0
 11
6.58187592760325
 21
17.0919848632813
 31
0
 62
 30 
  0
LINE
  8
Stift_0
 10
6.58187592760325
 20
17.0919848632813
 30
0
 11
6.56835092760325
 21
16.9894848632813
 31
0
 62
 30 
  0
LINE
  8
Stift_0
 10
6.56835092760325
 20
16.9894848632813
 30
0
 11
6.52867592760324
 21
16.8944848632814
 31
0
 62
 30 
  0
LINE
  8
Stift_0
 10
6.52867592760324
 20
16.8944848632814
 30
0
 11
6.46555092760325
 21
16.8119848632813
 31
0
 62
 30 
  0
LINE
  8
Stift_0
 10
6.46555092760325
 20
16.8119848632813
 30
0
 11
6.38327592760325
 21
16.7469848632813
 31
0
 62
 30 
  0
LINE
  8
Stift_0
 10
6.38327592760325
 20
16.7469848632813
 30
0
 11
6.28747592760325
 21
16.7094848632813
 31
0
 62
 30 
  0
LINE
  8
Stift_0
 10
6.28747592760325
 20
16.7094848632813
 30
0
 11
6.18467592760325
 21
16.6944848632813
 31
0
 62
 30 
  0
LINE
  8
Stift_0
 10
4.27185092760325
 20
16.5244848632813
 30
0
 11
4.16897592760324
 21
16.5394848632814
 31
0
 62
 30 
  0
LINE
  8
Stift_0
 10
4.16897592760324
 20
16.5394848632814
 30
0
 11
4.07310092760325
 21
16.5769848632813
 31
0
 62
 30 
  0
LINE
  8
Stift_0
 10
4.07310092760325
 20
16.5769848632813
 30
0
 11
3.99075092760325
 21
16.6419848632813
 31
0
 62
 30 
  0
LINE
  8
Stift_0
 10
3.99075092760325
 20
16.6419848632813
 30
0
 11
3.92757592760324
 21
16.7244848632813
 31
0
 62
 30 
  0
LINE
  8
Stift_0
 10
3.92757592760324
 20
16.7244848632813
 30
0
 11
3.88787592760325
 21
16.8194848632813
 31
0
 62
 30 
  0
LINE
  8
Stift_0
 10
3.88787592760325
 20
16.8194848632813
 30
0
 11
3.87432592760324
 21
16.9219848632813
 31
0
 62
 30 
  0
LINE
  8
Stift_0
 10
3.87432592760324
 20
16.9219848632813
 30
0
 11
3.88787592760325
 21
17.0244848632813
 31
0
 62
 30 
  0
LINE
  8
Stift_0
 10
3.88787592760325
 20
17.0244848632813
 30
0
 11
3.92757592760324
 21
17.1219848632813
 31
0
 62
 30 
  0
LINE
  8
Stift_0
 10
3.92757592760324
 20
17.1219848632813
 30
0
 11
3.99075092760325
 21
17.2044848632813
 31
0
 62
 30 
  0
LINE
  8
Stift_0
 10
3.99075092760325
 20
17.2044848632813
 30
0
 11
4.07310092760325
 21
17.2669848632813
 31
0
 62
 30 
  0
LINE
  8
Stift_0
 10
4.07310092760325
 20
17.2669848632813
 30
0
 11
4.16897592760324
 21
17.3069848632813
 31
0
 62
 30 
  0
LINE
  8
Stift_0
 10
4.16897592760324
 20
17.3069848632813
 30
0
 11
4.27185092760325
 21
17.3194848632813
 31
0
 62
 30 
  0
LINE
  8
Stift_0
 10
4.27185092760325
 20
17.3194848632813
 30
0
 11
4.37475092760324
 21
17.3069848632813
 31
0
 62
 30 
  0
LINE
  8
Stift_0
 10
4.37475092760324
 20
17.3069848632813
 30
0
 11
4.47062592760325
 21
17.2669848632813
 31
0
 62
 30 
  0
LINE
  8
Stift_0
 10
4.47062592760325
 20
17.2669848632813
 30
0
 11
4.55297592760324
 21
17.2044848632813
 31
0
 62
 30 
  0
LINE
  8
Stift_0
 10
4.55297592760324
 20
17.2044848632813
 30
0
 11
4.61615092760325
 21
17.1219848632813
 31
0
 62
 30 
  0
LINE
  8
Stift_0
 10
4.61615092760325
 20
17.1219848632813
 30
0
 11
4.65585092760324
 21
17.0244848632813
 31
0
 62
 30 
  0
LINE
  8
Stift_0
 10
4.65585092760324
 20
17.0244848632813
 30
0
 11
4.66940092760324
 21
16.9219848632813
 31
0
 62
 30 
  0
LINE
  8
Stift_0
 10
4.66940092760324
 20
16.9219848632813
 30
0
 11
4.65585092760324
 21
16.8194848632813
 31
0
 62
 30 
  0
LINE
  8
Stift_0
 10
4.65585092760324
 20
16.8194848632813
 30
0
 11
4.61615092760325
 21
16.7244848632813
 31
0
 62
 30 
  0
LINE
  8
Stift_0
 10
4.61615092760325
 20
16.7244848632813
 30
0
 11
4.55297592760324
 21
16.6419848632813
 31
0
 62
 30 
  0
LINE
  8
Stift_0
 10
4.55297592760324
 20
16.6419848632813
 30
0
 11
4.47062592760325
 21
16.5769848632813
 31
0
 62
 30 
  0
LINE
  8
Stift_0
 10
4.47062592760325
 20
16.5769848632813
 30
0
 11
4.37475092760324
 21
16.5394848632814
 31
0
 62
 30 
  0
LINE
  8
Stift_0
 10
4.37475092760324
 20
16.5394848632814
 30
0
 11
4.27185092760325
 21
16.5244848632813
 31
0
 62
 30 
  0
LINE
  8
Stift_0
 10
3.00922592760324
 20
14.6244848632813
 30
0
 11
2.91167592760324
 21
14.6369848632812
 31
0
 62
 30 
  0
LINE
  8
Stift_0
 10
2.91167592760324
 20
14.6369848632812
 30
0
 11
2.82075092760324
 21
14.6744848632812
 31
0
 62
 30 
  0
LINE
  8
Stift_0
 10
2.82075092760324
 20
14.6744848632812
 30
0
 11
2.74270092760325
 21
14.7344848632813
 31
0
 62
 30 
  0
LINE
  8
Stift_0
 10
2.74270092760325
 20
14.7344848632813
 30
0
 11
2.68280092760324
 21
14.8119848632813
 31
0
 62
 30 
  0
LINE
  8
Stift_0
 10
2.68280092760324
 20
14.8119848632813
 30
0
 11
2.64515092760325
 21
14.9019848632813
 31
0
 62
 30 
  0
LINE
  8
Stift_0
 10
2.64515092760325
 20
14.9019848632813
 30
0
 11
2.63230092760324
 21
14.9994848632813
 31
0
 62
 30 
  0
LINE
  8
Stift_0
 10
2.63230092760324
 20
14.9994848632813
 30
0
 11
2.64515092760325
 21
15.0969848632813
 31
0
 62
 30 
  0
LINE
  8
Stift_0
 10
2.64515092760325
 20
15.0969848632813
 30
0
 11
2.68280092760324
 21
15.1894848632813
 31
0
 62
 30 
  0
LINE
  8
Stift_0
 10
2.68280092760324
 20
15.1894848632813
 30
0
 11
2.74270092760325
 21
15.2669848632813
 31
0
 62
 30 
  0
LINE
  8
Stift_0
 10
2.74270092760325
 20
15.2669848632813
 30
0
 11
2.82075092760324
 21
15.3269848632813
 31
0
 62
 30 
  0
LINE
  8
Stift_0
 10
2.82075092760324
 20
15.3269848632813
 30
0
 11
2.91167592760324
 21
15.3644848632813
 31
0
 62
 30 
  0
LINE
  8
Stift_0
 10
2.91167592760324
 20
15.3644848632813
 30
0
 11
3.00922592760324
 21
15.3769848632813
 31
0
 62
 30 
  0
LINE
  8
Stift_0
 10
3.00922592760324
 20
15.3769848632813
 30
0
 11
3.10677592760324
 21
15.3644848632813
 31
0
 62
 30 
  0
LINE
  8
Stift_0
 10
3.10677592760324
 20
15.3644848632813
 30
0
 11
3.19767592760324
 21
15.3269848632813
 31
0
 62
 30 
  0
LINE
  8
Stift_0
 10
3.19767592760324
 20
15.3269848632813
 30
0
 11
3.27572592760325
 21
15.2669848632813
 31
0
 62
 30 
  0
LINE
  8
Stift_0
 10
3.27572592760325
 20
15.2669848632813
 30
0
 11
3.33562592760324
 21
15.1894848632813
 31
0
 62
 30 
  0
LINE
  8
Stift_0
 10
3.33562592760324
 20
15.1894848632813
 30
0
 11
3.37327592760324
 21
15.0969848632813
 31
0
 62
 30 
  0
LINE
  8
Stift_0
 10
3.37327592760324
 20
15.0969848632813
 30
0
 11
3.38612592760325
 21
14.9994848632813
 31
0
 62
 30 
  0
LINE
  8
Stift_0
 10
3.38612592760325
 20
14.9994848632813
 30
0
 11
3.37327592760324
 21
14.9019848632813
 31
0
 62
 30 
  0
LINE
  8
Stift_0
 10
3.37327592760324
 20
14.9019848632813
 30
0
 11
3.33562592760324
 21
14.8119848632813
 31
0
 62
 30 
  0
LINE
  8
Stift_0
 10
3.33562592760324
 20
14.8119848632813
 30
0
 11
3.27572592760325
 21
14.7344848632813
 31
0
 62
 30 
  0
LINE
  8
Stift_0
 10
3.27572592760325
 20
14.7344848632813
 30
0
 11
3.19767592760324
 21
14.6744848632812
 31
0
 62
 30 
  0
LINE
  8
Stift_0
 10
3.19767592760324
 20
14.6744848632812
 30
0
 11
3.10677592760324
 21
14.6369848632812
 31
0
 62
 30 
  0
LINE
  8
Stift_0
 10
3.10677592760324
 20
14.6369848632812
 30
0
 11
3.00922592760324
 21
14.6244848632813
 31
0
 62
 30 
  0
LINE
  8
Stift_0
 10
4.53570092760325
 20
14.9894848632813
 30
0
 11
4.44497592760324
 21
15.0019848632813
 31
0
 62
 30 
  0
LINE
  8
Stift_0
 10
4.44497592760324
 20
15.0019848632813
 30
0
 11
4.36042592760325
 21
15.0369848632813
 31
0
 62
 30 
  0
LINE
  8
Stift_0
 10
4.36042592760325
 20
15.0369848632813
 30
0
 11
4.28782592760324
 21
15.0919848632813
 31
0
 62
 30 
  0
LINE
  8
Stift_0
 10
4.28782592760324
 20
15.0919848632813
 30
0
 11
4.23212592760324
 21
15.1644848632814
 31
0
 62
 30 
  0
LINE
  8
Stift_0
 10
4.23212592760324
 20
15.1644848632814
 30
0
 11
4.19710092760324
 21
15.2494848632813
 31
0
 62
 30 
  0
LINE
  8
Stift_0
 10
4.19710092760324
 20
15.2494848632813
 30
0
 11
4.18515092760325
 21
15.3394848632813
 31
0
 62
 30 
  0
LINE
  8
Stift_0
 10
4.18515092760325
 20
15.3394848632813
 30
0
 11
4.19710092760324
 21
15.4294848632812
 31
0
 62
 30 
  0
LINE
  8
Stift_0
 10
4.19710092760324
 20
15.4294848632812
 30
0
 11
4.23212592760324
 21
15.5144848632813
 31
0
 62
 30 
  0
LINE
  8
Stift_0
 10
4.23212592760324
 20
15.5144848632813
 30
0
 11
4.28782592760324
 21
15.5869848632813
 31
0
 62
 30 
  0
LINE
  8
Stift_0
 10
4.28782592760324
 20
15.5869848632813
 30
0
 11
4.36042592760325
 21
15.6419848632813
 31
0
 62
 30 
  0
LINE
  8
Stift_0
 10
4.36042592760325
 20
15.6419848632813
 30
0
 11
4.44497592760324
 21
15.6769848632813
 31
0
 62
 30 
  0
LINE
  8
Stift_0
 10
4.44497592760324
 20
15.6769848632813
 30
0
 11
4.53570092760325
 21
15.6894848632813
 31
0
 62
 30 
  0
LINE
  8
Stift_0
 10
4.53570092760325
 20
15.6894848632813
 30
0
 11
4.62642592760325
 21
15.6769848632813
 31
0
 62
 30 
  0
LINE
  8
Stift_0
 10
4.62642592760325
 20
15.6769848632813
 30
0
 11
4.71097592760325
 21
15.6419848632813
 31
0
 62
 30 
  0
LINE
  8
Stift_0
 10
4.71097592760325
 20
15.6419848632813
 30
0
 11
4.78357592760324
 21
15.5869848632813
 31
0
 62
 30 
  0
LINE
  8
Stift_0
 10
4.78357592760324
 20
15.5869848632813
 30
0
 11
4.83927592760325
 21
15.5144848632813
 31
0
 62
 30 
  0
LINE
  8
Stift_0
 10
4.83927592760325
 20
15.5144848632813
 30
0
 11
4.87430092760324
 21
15.4294848632812
 31
0
 62
 30 
  0
LINE
  8
Stift_0
 10
4.87430092760324
 20
15.4294848632812
 30
0
 11
4.88625092760325
 21
15.3394848632813
 31
0
 62
 30 
  0
LINE
  8
Stift_0
 10
4.88625092760325
 20
15.3394848632813
 30
0
 11
4.87430092760324
 21
15.2494848632813
 31
0
 62
 30 
  0
LINE
  8
Stift_0
 10
4.87430092760324
 20
15.2494848632813
 30
0
 11
4.83927592760325
 21
15.1644848632814
 31
0
 62
 30 
  0
LINE
  8
Stift_0
 10
4.83927592760325
 20
15.1644848632814
 30
0
 11
4.78357592760324
 21
15.0919848632813
 31
0
 62
 30 
  0
LINE
  8
Stift_0
 10
4.78357592760324
 20
15.0919848632813
 30
0
 11
4.71097592760325
 21
15.0369848632813
 31
0
 62
 30 
  0
LINE
  8
Stift_0
 10
4.71097592760325
 20
15.0369848632813
 30
0
 11
4.62642592760325
 21
15.0019848632813
 31
0
 62
 30 
  0
LINE
  8
Stift_0
 10
4.62642592760325
 20
15.0019848632813
 30
0
 11
4.53570092760325
 21
14.9894848632813
 31
0
 62
 30 
  0
LINE
  8
Stift_0
 10
6.34485092760325
 20
15.2419848632812
 30
0
 11
6.25867592760325
 21
15.2544848632813
 31
0
 62
 30 
  0
LINE
  8
Stift_0
 10
6.25867592760325
 20
15.2544848632813
 30
0
 11
6.17835092760324
 21
15.2869848632813
 31
0
 62
 30 
  0
LINE
  8
Stift_0
 10
6.17835092760324
 20
15.2869848632813
 30
0
 11
6.10940092760324
 21
15.3394848632813
 31
0
 62
 30 
  0
LINE
  8
Stift_0
 10
6.10940092760324
 20
15.3394848632813
 30
0
 11
6.05647592760324
 21
15.4094848632813
 31
0
 62
 30 
  0
LINE
  8
Stift_0
 10
6.05647592760324
 20
15.4094848632813
 30
0
 11
6.02320092760325
 21
15.4894848632813
 31
0
 62
 30 
  0
LINE
  8
Stift_0
 10
6.02320092760325
 20
15.4894848632813
 30
0
 11
6.01185092760324
 21
15.5744848632812
 31
0
 62
 30 
  0
LINE
  8
Stift_0
 10
6.01185092760324
 20
15.5744848632812
 30
0
 11
6.02320092760325
 21
15.6619848632813
 31
0
 62
 30 
  0
LINE
  8
Stift_0
 10
6.02320092760325
 20
15.6619848632813
 30
0
 11
6.05647592760324
 21
15.7419848632812
 31
0
 62
 30 
  0
LINE
  8
Stift_0
 10
6.05647592760324
 20
15.7419848632812
 30
0
 11
6.10940092760324
 21
15.8094848632813
 31
0
 62
 30 
  0
LINE
  8
Stift_0
 10
6.10940092760324
 20
15.8094848632813
 30
0
 11
6.17835092760324
 21
15.8644848632813
 31
0
 62
 30 
  0
LINE
  8
Stift_0
 10
6.17835092760324
 20
15.8644848632813
 30
0
 11
6.25867592760325
 21
15.8969848632813
 31
0
 62
 30 
  0
LINE
  8
Stift_0
 10
6.25867592760325
 20
15.8969848632813
 30
0
 11
6.34485092760325
 21
15.9069848632813
 31
0
 62
 30 
  0
LINE
  8
Stift_0
 10
6.34485092760325
 20
15.9069848632813
 30
0
 11
6.43105092760324
 21
15.8969848632813
 31
0
 62
 30 
  0
LINE
  8
Stift_0
 10
6.43105092760324
 20
15.8969848632813
 30
0
 11
6.51137592760325
 21
15.8644848632813
 31
0
 62
 30 
  0
LINE
  8
Stift_0
 10
6.51137592760325
 20
15.8644848632813
 30
0
 11
6.58032592760325
 21
15.8094848632813
 31
0
 62
 30 
  0
LINE
  8
Stift_0
 10
6.58032592760325
 20
15.8094848632813
 30
0
 11
6.63325092760325
 21
15.7419848632812
 31
0
 62
 30 
  0
LINE
  8
Stift_0
 10
6.63325092760325
 20
15.7419848632812
 30
0
 11
6.66652592760324
 21
15.6619848632813
 31
0
 62
 30 
  0
LINE
  8
Stift_0
 10
6.66652592760324
 20
15.6619848632813
 30
0
 11
6.67787592760325
 21
15.5744848632812
 31
0
 62
 30 
  0
LINE
  8
Stift_0
 10
6.67787592760325
 20
15.5744848632812
 30
0
 11
6.66652592760324
 21
15.4894848632813
 31
0
 62
 30 
  0
LINE
  8
Stift_0
 10
6.66652592760324
 20
15.4894848632813
 30
0
 11
6.63325092760325
 21
15.4094848632813
 31
0
 62
 30 
  0
LINE
  8
Stift_0
 10
6.63325092760325
 20
15.4094848632813
 30
0
 11
6.58032592760325
 21
15.3394848632813
 31
0
 62
 30 
  0
LINE
  8
Stift_0
 10
6.58032592760325
 20
15.3394848632813
 30
0
 11
6.51137592760325
 21
15.2869848632813
 31
0
 62
 30 
  0
LINE
  8
Stift_0
 10
6.51137592760325
 20
15.2869848632813
 30
0
 11
6.43105092760324
 21
15.2544848632813
 31
0
 62
 30 
  0
LINE
  8
Stift_0
 10
6.43105092760324
 20
15.2544848632813
 30
0
 11
6.34485092760325
 21
15.2419848632812
 31
0
 62
 30 
  0
LINE
  8
Stift_0
 10
1.52042342760324
 20
11.1469848632813
 30
0
 11
1.44722092760324
 21
11.1569848632813
 31
0
 62
 30 
  0
LINE
  8
Stift_0
 10
1.44722092760324
 20
11.1569848632813
 30
0
 11
1.37900592760324
 21
11.1844848632813
 31
0
 62
 30 
  0
LINE
  8
Stift_0
 10
1.37900592760324
 20
11.1844848632813
 30
0
 11
1.32042842760324
 21
11.2294848632813
 31
0
 62
 30 
  0
LINE
  8
Stift_0
 10
1.32042842760324
 20
11.2294848632813
 30
0
 11
1.27548092760324
 21
11.2869848632813
 31
0
 62
 30 
  0
LINE
  8
Stift_0
 10
1.27548092760324
 20
11.2869848632813
 30
0
 11
1.24722342760324
 21
11.3569848632814
 31
0
 62
 30 
  0
LINE
  8
Stift_0
 10
1.24722342760324
 20
11.3569848632814
 30
0
 11
1.23758592760325
 21
11.4294848632812
 31
0
 62
 30 
  0
LINE
  8
Stift_0
 10
1.23758592760325
 20
11.4294848632812
 30
0
 11
1.24722342760324
 21
11.5019848632813
 31
0
 62
 30 
  0
LINE
  8
Stift_0
 10
1.24722342760324
 20
11.5019848632813
 30
0
 11
1.27548092760324
 21
11.5694848632813
 31
0
 62
 30 
  0
LINE
  8
Stift_0
 10
1.27548092760324
 20
11.5694848632813
 30
0
 11
1.32042842760324
 21
11.6294848632813
 31
0
 62
 30 
  0
LINE
  8
Stift_0
 10
1.32042842760324
 20
11.6294848632813
 30
0
 11
1.37900592760324
 21
11.6744848632812
 31
0
 62
 30 
  0
LINE
  8
Stift_0
 10
1.37900592760324
 20
11.6744848632812
 30
0
 11
1.44722092760324
 21
11.7019848632813
 31
0
 62
 30 
  0
LINE
  8
Stift_0
 10
1.44722092760324
 20
11.7019848632813
 30
0
 11
1.52042342760324
 21
11.7119848632813
 31
0
 62
 30 
  0
LINE
  8
Stift_0
 10
1.52042342760324
 20
11.7119848632813
 30
0
 11
1.59362592760324
 21
11.7019848632813
 31
0
 62
 30 
  0
LINE
  8
Stift_0
 10
1.59362592760324
 20
11.7019848632813
 30
0
 11
1.66184092760324
 21
11.6744848632812
 31
0
 62
 30 
  0
LINE
  8
Stift_0
 10
1.66184092760324
 20
11.6744848632812
 30
0
 11
1.72041842760324
 21
11.6294848632813
 31
0
 62
 30 
  0
LINE
  8
Stift_0
 10
1.72041842760324
 20
11.6294848632813
 30
0
 11
1.76536592760324
 21
11.5694848632813
 31
0
 62
 30 
  0
LINE
  8
Stift_0
 10
1.76536592760324
 20
11.5694848632813
 30
0
 11
1.79362092760324
 21
11.5019848632813
 31
0
 62
 30 
  0
LINE
  8
Stift_0
 10
1.79362092760324
 20
11.5019848632813
 30
0
 11
1.80325842760324
 21
11.4294848632812
 31
0
 62
 30 
  0
LINE
  8
Stift_0
 10
1.80325842760324
 20
11.4294848632812
 30
0
 11
1.79362092760324
 21
11.3569848632814
 31
0
 62
 30 
  0
LINE
  8
Stift_0
 10
1.79362092760324
 20
11.3569848632814
 30
0
 11
1.76536592760324
 21
11.2869848632813
 31
0
 62
 30 
  0
LINE
  8
Stift_0
 10
1.76536592760324
 20
11.2869848632813
 30
0
 11
1.72041842760324
 21
11.2294848632813
 31
0
 62
 30 
  0
LINE
  8
Stift_0
 10
1.72041842760324
 20
11.2294848632813
 30
0
 11
1.66184092760324
 21
11.1844848632813
 31
0
 62
 30 
  0
LINE
  8
Stift_0
 10
1.66184092760324
 20
11.1844848632813
 30
0
 11
1.59362592760324
 21
11.1569848632813
 31
0
 62
 30 
  0
LINE
  8
Stift_0
 10
1.59362592760324
 20
11.1569848632813
 30
0
 11
1.52042342760324
 21
11.1469848632813
 31
0
 62
 30 
  0
LINE
  8
Stift_0
 10
3.48977592760324
 20
10.4369848632813
 30
0
 11
3.38880092760325
 21
10.4494848632812
 31
0
 62
 30 
  0
LINE
  8
Stift_0
 10
3.38880092760325
 20
10.4494848632812
 30
0
 11
3.29472592760325
 21
10.4869848632812
 31
0
 62
 30 
  0
LINE
  8
Stift_0
 10
3.29472592760325
 20
10.4869848632812
 30
0
 11
3.21392592760325
 21
10.5494848632812
 31
0
 62
 30 
  0
LINE
  8
Stift_0
 10
3.21392592760325
 20
10.5494848632812
 30
0
 11
3.15192592760325
 21
10.6319848632813
 31
0
 62
 30 
  0
LINE
  8
Stift_0
 10
3.15192592760325
 20
10.6319848632813
 30
0
 11
3.11297592760324
 21
10.7244848632813
 31
0
 62
 30 
  0
LINE
  8
Stift_0
 10
3.11297592760324
 20
10.7244848632813
 30
0
 11
3.09967592760325
 21
10.8269848632813
 31
0
 62
 30 
  0
LINE
  8
Stift_0
 10
3.09967592760325
 20
10.8269848632813
 30
0
 11
3.11297592760324
 21
10.9269848632813
 31
0
 62
 30 
  0
LINE
  8
Stift_0
 10
3.11297592760324
 20
10.9269848632813
 30
0
 11
3.15192592760325
 21
11.0219848632813
 31
0
 62
 30 
  0
LINE
  8
Stift_0
 10
3.15192592760325
 20
11.0219848632813
 30
0
 11
3.21392592760325
 21
11.1019848632814
 31
0
 62
 30 
  0
LINE
  8
Stift_0
 10
3.21392592760325
 20
11.1019848632814
 30
0
 11
3.29472592760325
 21
11.1644848632814
 31
0
 62
 30 
  0
LINE
  8
Stift_0
 10
3.29472592760325
 20
11.1644848632814
 30
0
 11
3.38880092760325
 21
11.2019848632813
 31
0
 62
 30 
  0
LINE
  8
Stift_0
 10
3.38880092760325
 20
11.2019848632813
 30
0
 11
3.48977592760324
 21
11.2169848632813
 31
0
 62
 30 
  0
LINE
  8
Stift_0
 10
3.48977592760324
 20
11.2169848632813
 30
0
 11
3.59075092760325
 21
11.2019848632813
 31
0
 62
 30 
  0
LINE
  8
Stift_0
 10
3.59075092760325
 20
11.2019848632813
 30
0
 11
3.68482592760325
 21
11.1644848632814
 31
0
 62
 30 
  0
LINE
  8
Stift_0
 10
3.68482592760325
 20
11.1644848632814
 30
0
 11
3.76562592760325
 21
11.1019848632814
 31
0
 62
 30 
  0
LINE
  8
Stift_0
 10
3.76562592760325
 20
11.1019848632814
 30
0
 11
3.82760092760324
 21
11.0219848632813
 31
0
 62
 30 
  0
LINE
  8
Stift_0
 10
3.82760092760324
 20
11.0219848632813
 30
0
 11
3.86657592760325
 21
10.9269848632813
 31
0
 62
 30 
  0
LINE
  8
Stift_0
 10
3.86657592760325
 20
10.9269848632813
 30
0
 11
3.87987592760325
 21
10.8269848632813
 31
0
 62
 30 
  0
LINE
  8
Stift_0
 10
3.87987592760325
 20
10.8269848632813
 30
0
 11
3.86657592760325
 21
10.7244848632813
 31
0
 62
 30 
  0
LINE
  8
Stift_0
 10
3.86657592760325
 20
10.7244848632813
 30
0
 11
3.82760092760324
 21
10.6319848632813
 31
0
 62
 30 
  0
LINE
  8
Stift_0
 10
3.82760092760324
 20
10.6319848632813
 30
0
 11
3.76562592760325
 21
10.5494848632812
 31
0
 62
 30 
  0
LINE
  8
Stift_0
 10
3.76562592760325
 20
10.5494848632812
 30
0
 11
3.68482592760325
 21
10.4869848632812
 31
0
 62
 30 
  0
LINE
  8
Stift_0
 10
3.68482592760325
 20
10.4869848632812
 30
0
 11
3.59075092760325
 21
10.4494848632812
 31
0
 62
 30 
  0
LINE
  8
Stift_0
 10
3.59075092760325
 20
10.4494848632812
 30
0
 11
3.48977592760324
 21
10.4369848632813
 31
0
 62
 30 
  0
LINE
  8
Stift_0
 10
6.21295092760325
 20
9.50198486328134
 30
0
 11
6.16017592760324
 21
9.50698486328133
 31
0
 62
 30 
  0
LINE
  8
Stift_0
 10
6.16017592760324
 20
9.50698486328133
 30
0
 11
6.11102592760325
 21
9.52698486328131
 31
0
 62
 30 
  0
LINE
  8
Stift_0
 10
6.11102592760325
 20
9.52698486328131
 30
0
 11
6.06880092760325
 21
9.55948486328134
 31
0
 62
 30 
  0
LINE
  8
Stift_0
 10
6.06880092760325
 20
9.55948486328134
 30
0
 11
6.03640092760325
 21
9.60198486328136
 31
0
 62
 30 
  0
LINE
  8
Stift_0
 10
6.03640092760325
 20
9.60198486328136
 30
0
 11
6.01605092760325
 21
9.65198486328131
 31
0
 62
 30 
  0
LINE
  8
Stift_0
 10
6.01605092760325
 20
9.65198486328131
 30
0
 11
6.00910092760325
 21
9.70448486328132
 31
0
 62
 30 
  0
LINE
  8
Stift_0
 10
6.00910092760325
 20
9.70448486328132
 30
0
 11
6.01605092760325
 21
9.75698486328133
 31
0
 62
 30 
  0
LINE
  8
Stift_0
 10
6.01605092760325
 20
9.75698486328133
 30
0
 11
6.03640092760325
 21
9.80698486328129
 31
0
 62
 30 
  0
LINE
  8
Stift_0
 10
6.03640092760325
 20
9.80698486328129
 30
0
 11
6.06880092760325
 21
9.8494848632813
 31
0
 62
 30 
  0
LINE
  8
Stift_0
 10
6.06880092760325
 20
9.8494848632813
 30
0
 11
6.11102592760325
 21
9.88198486328133
 31
0
 62
 30 
  0
LINE
  8
Stift_0
 10
6.11102592760325
 20
9.88198486328133
 30
0
 11
6.16017592760324
 21
9.90198486328131
 31
0
 62
 30 
  0
LINE
  8
Stift_0
 10
6.16017592760324
 20
9.90198486328131
 30
0
 11
6.21295092760325
 21
9.90948486328125
 31
0
 62
 30 
  0
LINE
  8
Stift_0
 10
6.21295092760325
 20
9.90948486328125
 30
0
 11
6.26570092760324
 21
9.90198486328131
 31
0
 62
 30 
  0
LINE
  8
Stift_0
 10
6.26570092760324
 20
9.90198486328131
 30
0
 11
6.31487592760325
 21
9.88198486328133
 31
0
 62
 30 
  0
LINE
  8
Stift_0
 10
6.31487592760325
 20
9.88198486328133
 30
0
 11
6.35707592760324
 21
9.8494848632813
 31
0
 62
 30 
  0
LINE
  8
Stift_0
 10
6.35707592760324
 20
9.8494848632813
 30
0
 11
6.38947592760324
 21
9.80698486328129
 31
0
 62
 30 
  0
LINE
  8
Stift_0
 10
6.38947592760324
 20
9.80698486328129
 30
0
 11
6.40985092760324
 21
9.75698486328133
 31
0
 62
 30 
  0
LINE
  8
Stift_0
 10
6.40985092760324
 20
9.75698486328133
 30
0
 11
6.41677592760324
 21
9.70448486328132
 31
0
 62
 30 
  0
LINE
  8
Stift_0
 10
6.41677592760324
 20
9.70448486328132
 30
0
 11
6.40985092760324
 21
9.65198486328131
 31
0
 62
 30 
  0
LINE
  8
Stift_0
 10
6.40985092760324
 20
9.65198486328131
 30
0
 11
6.38947592760324
 21
9.60198486328136
 31
0
 62
 30 
  0
LINE
  8
Stift_0
 10
6.38947592760324
 20
9.60198486328136
 30
0
 11
6.35707592760324
 21
9.55948486328134
 31
0
 62
 30 
  0
LINE
  8
Stift_0
 10
6.35707592760324
 20
9.55948486328134
 30
0
 11
6.31487592760325
 21
9.52698486328131
 31
0
 62
 30 
  0
LINE
  8
Stift_0
 10
6.31487592760325
 20
9.52698486328131
 30
0
 11
6.26570092760324
 21
9.50698486328133
 31
0
 62
 30 
  0
LINE
  8
Stift_0
 10
6.26570092760324
 20
9.50698486328133
 30
0
 11
6.21295092760325
 21
9.50198486328134
 31
0
 62
 30 
  0
LINE
  8
Stift_0
 10
9.65225092760325
 20
11.3994848632813
 30
0
 11
9.57627592760325
 21
11.4094848632813
 31
0
 62
 30 
  0
LINE
  8
Stift_0
 10
9.57627592760325
 20
11.4094848632813
 30
0
 11
9.50550092760325
 21
11.4394848632813
 31
0
 62
 30 
  0
LINE
  8
Stift_0
 10
9.50550092760325
 20
11.4394848632813
 30
0
 11
9.44472592760325
 21
11.4844848632813
 31
0
 62
 30 
  0
LINE
  8
Stift_0
 10
9.44472592760325
 20
11.4844848632813
 30
0
 11
9.39810092760325
 21
11.5469848632813
 31
0
 62
 30 
  0
LINE
  8
Stift_0
 10
9.39810092760325
 20
11.5469848632813
 30
0
 11
9.36877592760325
 21
11.6169848632812
 31
0
 62
 30 
  0
LINE
  8
Stift_0
 10
9.36877592760325
 20
11.6169848632812
 30
0
 11
9.35877592760325
 21
11.6919848632813
 31
0
 62
 30 
  0
LINE
  8
Stift_0
 10
9.35877592760325
 20
11.6919848632813
 30
0
 11
9.36877592760325
 21
11.7694848632814
 31
0
 62
 30 
  0
LINE
  8
Stift_0
 10
9.36877592760325
 20
11.7694848632814
 30
0
 11
9.39810092760325
 21
11.8394848632813
 31
0
 62
 30 
  0
LINE
  8
Stift_0
 10
9.39810092760325
 20
11.8394848632813
 30
0
 11
9.44472592760325
 21
11.8994848632813
 31
0
 62
 30 
  0
LINE
  8
Stift_0
 10
9.44472592760325
 20
11.8994848632813
 30
0
 11
9.50550092760325
 21
11.9469848632813
 31
0
 62
 30 
  0
LINE
  8
Stift_0
 10
9.50550092760325
 20
11.9469848632813
 30
0
 11
9.57627592760325
 21
11.9769848632814
 31
0
 62
 30 
  0
LINE
  8
Stift_0
 10
9.57627592760325
 20
11.9769848632814
 30
0
 11
9.65225092760325
 21
11.9869848632812
 31
0
 62
 30 
  0
LINE
  8
Stift_0
 10
9.65225092760325
 20
11.9869848632812
 30
0
 11
9.72820092760325
 21
11.9769848632814
 31
0
 62
 30 
  0
LINE
  8
Stift_0
 10
9.72820092760325
 20
11.9769848632814
 30
0
 11
9.79897592760324
 21
11.9469848632813
 31
0
 62
 30 
  0
LINE
  8
Stift_0
 10
9.79897592760324
 20
11.9469848632813
 30
0
 11
9.85975092760325
 21
11.8994848632813
 31
0
 62
 30 
  0
LINE
  8
Stift_0
 10
9.85975092760325
 20
11.8994848632813
 30
0
 11
9.90640092760325
 21
11.8394848632813
 31
0
 62
 30 
  0
LINE
  8
Stift_0
 10
9.90640092760325
 20
11.8394848632813
 30
0
 11
9.93570092760324
 21
11.7694848632814
 31
0
 62
 30 
  0
LINE
  8
Stift_0
 10
9.93570092760324
 20
11.7694848632814
 30
0
 11
9.94570092760325
 21
11.6919848632813
 31
0
 62
 30 
  0
LINE
  8
Stift_0
 10
9.94570092760325
 20
11.6919848632813
 30
0
 11
9.93570092760324
 21
11.6169848632812
 31
0
 62
 30 
  0
LINE
  8
Stift_0
 10
9.93570092760324
 20
11.6169848632812
 30
0
 11
9.90640092760325
 21
11.5469848632813
 31
0
 62
 30 
  0
LINE
  8
Stift_0
 10
9.90640092760325
 20
11.5469848632813
 30
0
 11
9.85975092760325
 21
11.4844848632813
 31
0
 62
 30 
  0
LINE
  8
Stift_0
 10
9.85975092760325
 20
11.4844848632813
 30
0
 11
9.79897592760324
 21
11.4394848632813
 31
0
 62
 30 
  0
LINE
  8
Stift_0
 10
9.79897592760324
 20
11.4394848632813
 30
0
 11
9.72820092760325
 21
11.4094848632813
 31
0
 62
 30 
  0
LINE
  8
Stift_0
 10
9.72820092760325
 20
11.4094848632813
 30
0
 11
9.65225092760325
 21
11.3994848632813
 31
0
 62
 30 
  0
LINE
  8
Stift_0
 10
9.15282592760324
 20
12.6494848632813
 30
0
 11
9.08845092760325
 21
12.6594848632813
 31
0
 62
 30 
  0
LINE
  8
Stift_0
 10
9.08845092760325
 20
12.6594848632813
 30
0
 11
9.02845092760325
 21
12.6844848632813
 31
0
 62
 30 
  0
LINE
  8
Stift_0
 10
9.02845092760325
 20
12.6844848632813
 30
0
 11
8.97692592760325
 21
12.7219848632813
 31
0
 62
 30 
  0
LINE
  8
Stift_0
 10
8.97692592760325
 20
12.7219848632813
 30
0
 11
8.93740092760325
 21
12.7744848632813
 31
0
 62
 30 
  0
LINE
  8
Stift_0
 10
8.93740092760325
 20
12.7744848632813
 30
0
 11
8.91255092760325
 21
12.8344848632813
 31
0
 62
 30 
  0
LINE
  8
Stift_0
 10
8.91255092760325
 20
12.8344848632813
 30
0
 11
8.90407592760324
 21
12.8994848632813
 31
0
 62
 30 
  0
LINE
  8
Stift_0
 10
8.90407592760324
 20
12.8994848632813
 30
0
 11
8.91255092760325
 21
12.9644848632813
 31
0
 62
 30 
  0
LINE
  8
Stift_0
 10
8.91255092760325
 20
12.9644848632813
 30
0
 11
8.93740092760325
 21
13.0244848632813
 31
0
 62
 30 
  0
LINE
  8
Stift_0
 10
8.93740092760325
 20
13.0244848632813
 30
0
 11
8.97692592760325
 21
13.0744848632812
 31
0
 62
 30 
  0
LINE
  8
Stift_0
 10
8.97692592760325
 20
13.0744848632812
 30
0
 11
9.02845092760325
 21
13.1144848632813
 31
0
 62
 30 
  0
LINE
  8
Stift_0
 10
9.02845092760325
 20
13.1144848632813
 30
0
 11
9.08845092760325
 21
13.1394848632813
 31
0
 62
 30 
  0
LINE
  8
Stift_0
 10
9.08845092760325
 20
13.1394848632813
 30
0
 11
9.15282592760324
 21
13.1469848632813
 31
0
 62
 30 
  0
LINE
  8
Stift_0
 10
9.15282592760324
 20
13.1469848632813
 30
0
 11
9.21722592760324
 21
13.1394848632813
 31
0
 62
 30 
  0
LINE
  8
Stift_0
 10
9.21722592760324
 20
13.1394848632813
 30
0
 11
9.27722592760325
 21
13.1144848632813
 31
0
 62
 30 
  0
LINE
  8
Stift_0
 10
9.27722592760325
 20
13.1144848632813
 30
0
 11
9.32875092760325
 21
13.0744848632812
 31
0
 62
 30 
  0
LINE
  8
Stift_0
 10
9.32875092760325
 20
13.0744848632812
 30
0
 11
9.36827592760324
 21
13.0244848632813
 31
0
 62
 30 
  0
LINE
  8
Stift_0
 10
9.36827592760324
 20
13.0244848632813
 30
0
 11
9.39312592760325
 21
12.9644848632813
 31
0
 62
 30 
  0
LINE
  8
Stift_0
 10
9.39312592760325
 20
12.9644848632813
 30
0
 11
9.40160092760325
 21
12.8994848632813
 31
0
 62
 30 
  0
LINE
  8
Stift_0
 10
9.40160092760325
 20
12.8994848632813
 30
0
 11
9.39312592760325
 21
12.8344848632813
 31
0
 62
 30 
  0
LINE
  8
Stift_0
 10
9.39312592760325
 20
12.8344848632813
 30
0
 11
9.36827592760324
 21
12.7744848632813
 31
0
 62
 30 
  0
LINE
  8
Stift_0
 10
9.36827592760324
 20
12.7744848632813
 30
0
 11
9.32875092760325
 21
12.7219848632813
 31
0
 62
 30 
  0
LINE
  8
Stift_0
 10
9.32875092760325
 20
12.7219848632813
 30
0
 11
9.27722592760325
 21
12.6844848632813
 31
0
 62
 30 
  0
LINE
  8
Stift_0
 10
9.27722592760325
 20
12.6844848632813
 30
0
 11
9.21722592760324
 21
12.6594848632813
 31
0
 62
 30 
  0
LINE
  8
Stift_0
 10
9.21722592760324
 20
12.6594848632813
 30
0
 11
9.15282592760324
 21
12.6494848632813
 31
0
 62
 30 
  0
LINE
  8
Stift_0
 10
7.01387592760324
 20
11.7069848632814
 30
0
 11
6.91035092760325
 21
11.7219848632813
 31
0
 62
 30 
  0
LINE
  8
Stift_0
 10
6.91035092760325
 20
11.7219848632813
 30
0
 11
6.81387592760325
 21
11.7619848632812
 31
0
 62
 30 
  0
LINE
  8
Stift_0
 10
6.81387592760325
 20
11.7619848632812
 30
0
 11
6.73105092760325
 21
11.8244848632812
 31
0
 62
 30 
  0
LINE
  8
Stift_0
 10
6.73105092760325
 20
11.8244848632812
 30
0
 11
6.66747592760325
 21
11.9069848632813
 31
0
 62
 30 
  0
LINE
  8
Stift_0
 10
6.66747592760325
 20
11.9069848632813
 30
0
 11
6.62752592760324
 21
12.0044848632813
 31
0
 62
 30 
  0
LINE
  8
Stift_0
 10
6.62752592760324
 20
12.0044848632813
 30
0
 11
6.61387592760325
 21
12.1069848632814
 31
0
 62
 30 
  0
LINE
  8
Stift_0
 10
6.61387592760325
 20
12.1069848632814
 30
0
 11
6.62752592760324
 21
12.2119848632813
 31
0
 62
 30 
  0
LINE
  8
Stift_0
 10
6.62752592760324
 20
12.2119848632813
 30
0
 11
6.66747592760325
 21
12.3069848632813
 31
0
 62
 30 
  0
LINE
  8
Stift_0
 10
6.66747592760325
 20
12.3069848632813
 30
0
 11
6.73105092760325
 21
12.3894848632813
 31
0
 62
 30 
  0
LINE
  8
Stift_0
 10
6.73105092760325
 20
12.3894848632813
 30
0
 11
6.81387592760325
 21
12.4544848632813
 31
0
 62
 30 
  0
LINE
  8
Stift_0
 10
6.81387592760325
 20
12.4544848632813
 30
0
 11
6.91035092760325
 21
12.4944848632813
 31
0
 62
 30 
  0
LINE
  8
Stift_0
 10
6.91035092760325
 20
12.4944848632813
 30
0
 11
7.01387592760324
 21
12.5069848632813
 31
0
 62
 30 
  0
LINE
  8
Stift_0
 10
7.01387592760324
 20
12.5069848632813
 30
0
 11
7.11740092760325
 21
12.4944848632813
 31
0
 62
 30 
  0
LINE
  8
Stift_0
 10
7.11740092760325
 20
12.4944848632813
 30
0
 11
7.21387592760324
 21
12.4544848632813
 31
0
 62
 30 
  0
LINE
  8
Stift_0
 10
7.21387592760324
 20
12.4544848632813
 30
0
 11
7.29670092760324
 21
12.3894848632813
 31
0
 62
 30 
  0
LINE
  8
Stift_0
 10
7.29670092760324
 20
12.3894848632813
 30
0
 11
7.36027592760324
 21
12.3069848632813
 31
0
 62
 30 
  0
LINE
  8
Stift_0
 10
7.36027592760324
 20
12.3069848632813
 30
0
 11
7.40022592760324
 21
12.2119848632813
 31
0
 62
 30 
  0
LINE
  8
Stift_0
 10
7.40022592760324
 20
12.2119848632813
 30
0
 11
7.41387592760324
 21
12.1069848632814
 31
0
 62
 30 
  0
LINE
  8
Stift_0
 10
7.41387592760324
 20
12.1069848632814
 30
0
 11
7.40022592760324
 21
12.0044848632813
 31
0
 62
 30 
  0
LINE
  8
Stift_0
 10
7.40022592760324
 20
12.0044848632813
 30
0
 11
7.36027592760324
 21
11.9069848632813
 31
0
 62
 30 
  0
LINE
  8
Stift_0
 10
7.36027592760324
 20
11.9069848632813
 30
0
 11
7.29670092760324
 21
11.8244848632812
 31
0
 62
 30 
  0
LINE
  8
Stift_0
 10
7.29670092760324
 20
11.8244848632812
 30
0
 11
7.21387592760324
 21
11.7619848632812
 31
0
 62
 30 
  0
LINE
  8
Stift_0
 10
7.21387592760324
 20
11.7619848632812
 30
0
 11
7.11740092760325
 21
11.7219848632813
 31
0
 62
 30 
  0
LINE
  8
Stift_0
 10
7.11740092760325
 20
11.7219848632813
 30
0
 11
7.01387592760324
 21
11.7069848632814
 31
0
 62
 30 
  0
LINE
  8
Stift_0
 10
6.58042592760325
 20
13.2994848632812
 30
0
 11
6.47947592760325
 21
13.3144848632813
 31
0
 62
 30 
  0
LINE
  8
Stift_0
 10
6.47947592760325
 20
13.3144848632813
 30
0
 11
6.38537592760325
 21
13.3519848632814
 31
0
 62
 30 
  0
LINE
  8
Stift_0
 10
6.38537592760325
 20
13.3519848632814
 30
0
 11
6.30457592760325
 21
13.4144848632814
 31
0
 62
 30 
  0
LINE
  8
Stift_0
 10
6.30457592760325
 20
13.4144848632814
 30
0
 11
6.24260092760325
 21
13.4944848632813
 31
0
 62
 30 
  0
LINE
  8
Stift_0
 10
6.24260092760325
 20
13.4944848632813
 30
0
 11
6.20362592760324
 21
13.5894848632813
 31
0
 62
 30 
  0
LINE
  8
Stift_0
 10
6.20362592760324
 20
13.5894848632813
 30
0
 11
6.19032592760325
 21
13.6894848632813
 31
0
 62
 30 
  0
LINE
  8
Stift_0
 10
6.19032592760325
 20
13.6894848632813
 30
0
 11
6.20362592760324
 21
13.7919848632813
 31
0
 62
 30 
  0
LINE
  8
Stift_0
 10
6.20362592760324
 20
13.7919848632813
 30
0
 11
6.24260092760325
 21
13.8844848632813
 31
0
 62
 30 
  0
LINE
  8
Stift_0
 10
6.24260092760325
 20
13.8844848632813
 30
0
 11
6.30457592760325
 21
13.9669848632813
 31
0
 62
 30 
  0
LINE
  8
Stift_0
 10
6.30457592760325
 20
13.9669848632813
 30
0
 11
6.38537592760325
 21
14.0294848632813
 31
0
 62
 30 
  0
LINE
  8
Stift_0
 10
6.38537592760325
 20
14.0294848632813
 30
0
 11
6.47947592760325
 21
14.0669848632813
 31
0
 62
 30 
  0
LINE
  8
Stift_0
 10
6.47947592760325
 20
14.0669848632813
 30
0
 11
6.58042592760325
 21
14.0794848632813
 31
0
 62
 30 
  0
LINE
  8
Stift_0
 10
6.58042592760325
 20
14.0794848632813
 30
0
 11
6.68140092760325
 21
14.0669848632813
 31
0
 62
 30 
  0
LINE
  8
Stift_0
 10
6.68140092760325
 20
14.0669848632813
 30
0
 11
6.77547592760325
 21
14.0294848632813
 31
0
 62
 30 
  0
LINE
  8
Stift_0
 10
6.77547592760325
 20
14.0294848632813
 30
0
 11
6.85627592760325
 21
13.9669848632813
 31
0
 62
 30 
  0
LINE
  8
Stift_0
 10
6.85627592760325
 20
13.9669848632813
 30
0
 11
6.91827592760324
 21
13.8844848632813
 31
0
 62
 30 
  0
LINE
  8
Stift_0
 10
6.91827592760324
 20
13.8844848632813
 30
0
 11
6.95725092760325
 21
13.7919848632813
 31
0
 62
 30 
  0
LINE
  8
Stift_0
 10
6.95725092760325
 20
13.7919848632813
 30
0
 11
6.97052592760325
 21
13.6894848632813
 31
0
 62
 30 
  0
LINE
  8
Stift_0
 10
6.97052592760325
 20
13.6894848632813
 30
0
 11
6.95725092760325
 21
13.5894848632813
 31
0
 62
 30 
  0
LINE
  8
Stift_0
 10
6.95725092760325
 20
13.5894848632813
 30
0
 11
6.91827592760324
 21
13.4944848632813
 31
0
 62
 30 
  0
LINE
  8
Stift_0
 10
6.91827592760324
 20
13.4944848632813
 30
0
 11
6.85627592760325
 21
13.4144848632814
 31
0
 62
 30 
  0
LINE
  8
Stift_0
 10
6.85627592760325
 20
13.4144848632814
 30
0
 11
6.77547592760325
 21
13.3519848632814
 31
0
 62
 30 
  0
LINE
  8
Stift_0
 10
6.77547592760325
 20
13.3519848632814
 30
0
 11
6.68140092760325
 21
13.3144848632813
 31
0
 62
 30 
  0
LINE
  8
Stift_0
 10
6.68140092760325
 20
13.3144848632813
 30
0
 11
6.58042592760325
 21
13.2994848632812
 31
0
 62
 30 
  0
LINE
  8
Stift_0
 10
8.49325092760325
 20
13.9369848632813
 30
0
 11
8.40105092760325
 21
13.9494848632812
 31
0
 62
 30 
  0
LINE
  8
Stift_0
 10
8.40105092760325
 20
13.9494848632812
 30
0
 11
8.31515092760324
 21
13.9844848632813
 31
0
 62
 30 
  0
LINE
  8
Stift_0
 10
8.31515092760324
 20
13.9844848632813
 30
0
 11
8.24137592760325
 21
14.0419848632813
 31
0
 62
 30 
  0
LINE
  8
Stift_0
 10
8.24137592760325
 20
14.0419848632813
 30
0
 11
8.18477592760325
 21
14.1144848632813
 31
0
 62
 30 
  0
LINE
  8
Stift_0
 10
8.18477592760325
 20
14.1144848632813
 30
0
 11
8.14917592760325
 21
14.2019848632813
 31
0
 62
 30 
  0
LINE
  8
Stift_0
 10
8.14917592760325
 20
14.2019848632813
 30
0
 11
8.13705092760325
 21
14.2944848632814
 31
0
 62
 30 
  0
LINE
  8
Stift_0
 10
8.13705092760325
 20
14.2944848632814
 30
0
 11
8.14917592760325
 21
14.3869848632812
 31
0
 62
 30 
  0
LINE
  8
Stift_0
 10
8.14917592760325
 20
14.3869848632812
 30
0
 11
8.18477592760325
 21
14.4719848632813
 31
0
 62
 30 
  0
LINE
  8
Stift_0
 10
8.18477592760325
 20
14.4719848632813
 30
0
 11
8.24137592760325
 21
14.5444848632814
 31
0
 62
 30 
  0
LINE
  8
Stift_0
 10
8.24137592760325
 20
14.5444848632814
 30
0
 11
8.31515092760324
 21
14.6019848632814
 31
0
 62
 30 
  0
LINE
  8
Stift_0
 10
8.31515092760324
 20
14.6019848632814
 30
0
 11
8.40105092760325
 21
14.6369848632812
 31
0
 62
 30 
  0
LINE
  8
Stift_0
 10
8.40105092760325
 20
14.6369848632812
 30
0
 11
8.49325092760325
 21
14.6494848632813
 31
0
 62
 30 
  0
LINE
  8
Stift_0
 10
8.49325092760325
 20
14.6494848632813
 30
0
 11
8.58542592760324
 21
14.6369848632812
 31
0
 62
 30 
  0
LINE
  8
Stift_0
 10
8.58542592760324
 20
14.6369848632812
 30
0
 11
8.67135092760325
 21
14.6019848632814
 31
0
 62
 30 
  0
LINE
  8
Stift_0
 10
8.67135092760325
 20
14.6019848632814
 30
0
 11
8.74510092760324
 21
14.5444848632814
 31
0
 62
 30 
  0
LINE
  8
Stift_0
 10
8.74510092760324
 20
14.5444848632814
 30
0
 11
8.80172592760325
 21
14.4719848632813
 31
0
 62
 30 
  0
LINE
  8
Stift_0
 10
8.80172592760325
 20
14.4719848632813
 30
0
 11
8.83730092760324
 21
14.3869848632812
 31
0
 62
 30 
  0
LINE
  8
Stift_0
 10
8.83730092760324
 20
14.3869848632812
 30
0
 11
8.84945092760324
 21
14.2944848632814
 31
0
 62
 30 
  0
LINE
  8
Stift_0
 10
8.84945092760324
 20
14.2944848632814
 30
0
 11
8.83730092760324
 21
14.2019848632813
 31
0
 62
 30 
  0
LINE
  8
Stift_0
 10
8.83730092760324
 20
14.2019848632813
 30
0
 11
8.80172592760325
 21
14.1144848632813
 31
0
 62
 30 
  0
LINE
  8
Stift_0
 10
8.80172592760325
 20
14.1144848632813
 30
0
 11
8.74510092760324
 21
14.0419848632813
 31
0
 62
 30 
  0
LINE
  8
Stift_0
 10
8.74510092760324
 20
14.0419848632813
 30
0
 11
8.67135092760325
 21
13.9844848632813
 31
0
 62
 30 
  0
LINE
  8
Stift_0
 10
8.67135092760325
 20
13.9844848632813
 30
0
 11
8.58542592760324
 21
13.9494848632812
 31
0
 62
 30 
  0
LINE
  8
Stift_0
 10
8.58542592760324
 20
13.9494848632812
 30
0
 11
8.49325092760325
 21
13.9369848632813
 31
0
 62
 30 
  0
LINE
  8
Stift_0
 10
4.93145092760324
 20
13.1469848632813
 30
0
 11
4.84190092760324
 21
13.1594848632813
 31
0
 62
 30 
  0
LINE
  8
Stift_0
 10
4.84190092760324
 20
13.1594848632813
 30
0
 11
4.75847592760325
 21
13.1919848632813
 31
0
 62
 30 
  0
LINE
  8
Stift_0
 10
4.75847592760325
 20
13.1919848632813
 30
0
 11
4.68682592760324
 21
13.2469848632813
 31
0
 62
 30 
  0
LINE
  8
Stift_0
 10
4.68682592760324
 20
13.2469848632813
 30
0
 11
4.63185092760324
 21
13.3194848632813
 31
0
 62
 30 
  0
LINE
  8
Stift_0
 10
4.63185092760324
 20
13.3194848632813
 30
0
 11
4.59727592760324
 21
13.4019848632813
 31
0
 62
 30 
  0
LINE
  8
Stift_0
 10
4.59727592760324
 20
13.4019848632813
 30
0
 11
4.58550092760324
 21
13.4919848632812
 31
0
 62
 30 
  0
LINE
  8
Stift_0
 10
4.58550092760324
 20
13.4919848632812
 30
0
 11
4.59727592760324
 21
13.5819848632814
 31
0
 62
 30 
  0
LINE
  8
Stift_0
 10
4.59727592760324
 20
13.5819848632814
 30
0
 11
4.63185092760324
 21
13.6644848632814
 31
0
 62
 30 
  0
LINE
  8
Stift_0
 10
4.63185092760324
 20
13.6644848632814
 30
0
 11
4.68682592760324
 21
13.7369848632812
 31
0
 62
 30 
  0
LINE
  8
Stift_0
 10
4.68682592760324
 20
13.7369848632812
 30
0
 11
4.75847592760325
 21
13.7919848632813
 31
0
 62
 30 
  0
LINE
  8
Stift_0
 10
4.75847592760325
 20
13.7919848632813
 30
0
 11
4.84190092760324
 21
13.8269848632813
 31
0
 62
 30 
  0
LINE
  8
Stift_0
 10
4.84190092760324
 20
13.8269848632813
 30
0
 11
4.93145092760324
 21
13.8394848632813
 31
0
 62
 30 
  0
LINE
  8
Stift_0
 10
4.93145092760324
 20
13.8394848632813
 30
0
 11
5.02100092760324
 21
13.8269848632813
 31
0
 62
 30 
  0
LINE
  8
Stift_0
 10
5.02100092760324
 20
13.8269848632813
 30
0
 11
5.10442592760324
 21
13.7919848632813
 31
0
 62
 30 
  0
LINE
  8
Stift_0
 10
5.10442592760324
 20
13.7919848632813
 30
0
 11
5.17607592760324
 21
13.7369848632812
 31
0
 62
 30 
  0
LINE
  8
Stift_0
 10
5.17607592760324
 20
13.7369848632812
 30
0
 11
5.23105092760325
 21
13.6644848632814
 31
0
 62
 30 
  0
LINE
  8
Stift_0
 10
5.23105092760325
 20
13.6644848632814
 30
0
 11
5.26562592760325
 21
13.5819848632814
 31
0
 62
 30 
  0
LINE
  8
Stift_0
 10
5.26562592760325
 20
13.5819848632814
 30
0
 11
5.27740092760325
 21
13.4919848632812
 31
0
 62
 30 
  0
LINE
  8
Stift_0
 10
5.27740092760325
 20
13.4919848632812
 30
0
 11
5.26562592760325
 21
13.4019848632813
 31
0
 62
 30 
  0
LINE
  8
Stift_0
 10
5.26562592760325
 20
13.4019848632813
 30
0
 11
5.23105092760325
 21
13.3194848632813
 31
0
 62
 30 
  0
LINE
  8
Stift_0
 10
5.23105092760325
 20
13.3194848632813
 30
0
 11
5.17607592760324
 21
13.2469848632813
 31
0
 62
 30 
  0
LINE
  8
Stift_0
 10
5.17607592760324
 20
13.2469848632813
 30
0
 11
5.10442592760324
 21
13.1919848632813
 31
0
 62
 30 
  0
LINE
  8
Stift_0
 10
5.10442592760324
 20
13.1919848632813
 30
0
 11
5.02100092760324
 21
13.1594848632813
 31
0
 62
 30 
  0
LINE
  8
Stift_0
 10
5.02100092760324
 20
13.1594848632813
 30
0
 11
4.93145092760324
 21
13.1469848632813
 31
0
 62
 30 
  0
ENDSEC
  0
EOF
